Epica

Run For A Fall

Epica

tabs Expert expert

save to print version add songbook text version e-mail correct tuner
chordsukulelecavacokeyboardtabbassdrumsharmonicaflute Guitar Pro
close

there isn't a video lesson for this song

chords

Run For A Fall

	  		Intro "Strings/violon" 
E|-0-3-2-0---0---|-0-3-2-0---0---|-0-3-2-0---0---------------| 
B|---------3---0-|---------3-----|---------3---0-1-0-0---1-0-| 
G|---------------|---------------|---------------------2-----| 
D|---------------|---------------|---------------------------| 
A|---------------|---------------|---------------------------| 
E|---------------|---------------|---------------------------| 
 
E|--------------------------------------------------------------------| 
B|----------------------------------------------------------0-----3---| 
G|-----0-------0--------0-------0--------0-------0--------0-----------| 
D|---------9----------4---4-------0----------9----------4-------2---2-| 
A|---7---7---7---7--2-------5----------7---7---7---7--2-------3-------| 
E|-0--------------------------3------0--------------------------------| 
B|--------------------------------------------------------------------| 
 
|--------------------------------------------------------------------| 
|-----------------------------------------------1----0-------0-------| 
|-----0-------0--------0------------------0--------------0-------0---| x3 
|---------9----------4---4---0---0------2-----2---2----2---2---2---2-| 
|---7---7---7---7--2------------------2------------------------------| 
|-0------------------------3---2----0-------2------------------------| 
|--------------------------------------------------------------------| 
 
|--------------------------------------------------------------------| 
|----------------------------------------------------------0-----3---| 
|-----0-------0--------0-------0--------0-------0--------0-----------| 
|---------9----------4---4-------0----------9----------4-------2---2-| 
|---7---7---7---7--2-------5----------7---7---7---7--2-------3-------| 
|-0--------------------------3------0--------------------------------| 
|--------------------------------------------------------------------| 
 
|--------------------------------------------------------------------| 
|-----------------------------------------------1----0-------0-------| 
|-----0-------0--------0------------------0--------------0-----------| 
|---------9----------4---4---0---0------2-----2---2----2---2---2-----| 
|---7---7---7---7--2------------------2------------------------------| 
|-0------------------------3---2----0-------2--------------------0-2-| 
|--------------------------------------------------------------------| 
 
|----------------------------------|  |---------0-5--------| 
|---------3----------------2-------|  |-------0--------0---| 
|----------------------------------|  |-----2--------------| 
|-----5-------5--------4-------4---|X3|---2----------2---2-| 
|---5---5---5---5----4---4---4---4-|  |-0------------------| 
|-3----------------2---------------|  |--------------------| 
|----------------------------------|  |--------------------| 
 
|--------------------------------------------------------------------| 
|----------------------------------------------------------0-----3---| 
|-----0-------0--------0-------0--------0-------0--------0-----------| 
|---------9----------4---4-------0----------9----------4-------2---2-| 
|---7---7---7---7--2-------5----------7---7---7---7--2-------3-------| 
|-0--------------------------3------0--------------------------------| 
|--------------------------------------------------------------------| 
 
|--------------------------------------------------------------------| 
|-----------------------------------------------1----0-------0-------| 
|-----0-------0--------0------------------0--------------0-----------| 
|---------9----------4---4---0---0------2-----2---2----2---2---2-----| 
|---7---7---7---7--2------------------2------------------------------| 
|-0------------------------3---2----0-------2--------------------0-2-| 
|--------------------------------------------------------------------| 
 
|----------------------------------|  |---------0---0-5---| 
|---------3----------------2-------|  |-----0-------------| 
|----------------------------------|  |-------------------| 
|-----5-------5--------4-------4---|X3|---2---2---2-----2-| 
|---5---5---5---5----4---4---4---4-|  |-0-----------------| 
|-3----------------2---------------|  |-------------------| 
|----------------------------------|  |-------------------| 
|----------------------------------|  |-------------------| 
 
|-0---2---0---2-|  |-3---2---0---2---0-| 
|-0---3---1---3-|  |-3---3---1---3---0-| 
|-0---4---0---2-|  |-0---4---0---4---0-| 
|-2---4---2---0-|X2|-2---4---2---4---2-| 
|-2---2---3---0-|  |-3---2---3---2---2-| 
|-0---2---3---0-|  |-0---2---3---2---0-| 
|---------------|  |-------------------| 
3:00 
|--------------------------------------------------------------------| 
|--------------------------------------------------------------------| 
|--------------------------------------------------------------------| 
|--------------------------------------------------------------------| 
|------2------2------7-----9-----10--------2------2----10----12----9-| 
|-0-0-0--0-0-0--0-0-0---0-0---0-0----0-0-0---0-0-0--0-0---0-0---0-0--| 
|--------------------------------------------------------------------| 
 
|--------------------------------| 
|--------------------------------| 
|--------------------------------| 
|--------------------------------| 
|------2------2-----7----9----10-| 
|-0-0-0--0-0-0--0-0---0-0---0-0--| 
|--------------------------------| 
 
|-------------------------------------------------------------------| 
|-------------------------------------------------------------------| 
|-------------------------------------------------------------------| 
|-------------------------------------------------------------------| 
|------10------10----7-----9-----10-------7------7----10----12----9-| 
|-0-0-0---0-0-0---0-0---0-0---0-0----0-0-0--0-0-0--0-0---0-0---0-0--| 
|-------------------------------------------------------------------| 
 
|--------------------------------------------------------------------| 
|--------------------------------------------------------------------| 
|--------------------------------------------------------------------| 
|--------------------------------------------------------------------| 
|------2------2------7-----9-----10--------2------2----10----12----9-| 
|-0-0-0--0-0-0--0-0-0---0-0---0-0----0-0-0---0-0-0--0-0---0-0---0-0--| 
|--------------------------------------------------------------------| 
 
|----------------------|  |-------------------------------------------| 
|----------------------|  |-------------------------------------------| 
|----------------------|  |-------------------------------------------| 
|----------------------|X2|-------------------------------------------| 
|------7------7------7-|  |------5------5------5------6------6------6-| 
|----------------------|  |-------------------------------------------| 
|-0-0-0--0-0-0--0-0-0--|  |-0-0-0--0-0-0--0-0-0--0-0-0--0-0-0--0-0-0--| 
 
|----------------------|  |----------------------| 
|----------------------|  |----------------------| 
|----------------------|  |----------------------| 
|----------------------|X9|----------------------| 
|-2-2--2-2--2-2--2-2-2-|  |-7-7--7-7--7-7--7-7-7-| 
|-0-0--0-0--0-0--0-0-0-|  |-5-5--5-5--5-5--5-5-5-| 
|----------------------|  |----------------------| 
 
|--------------------------------------------| 
|--------------------------------------------| 
|--------------------------------------------| 
|--------------------------------------------| 
|-8-8--8-8--8-8--8-8-8--9-9--9-9--9-9--9-9-9-| 
|-6-6--6-6--6-6--6-6-6--7-7--7-7--7-7--7-7-7-| 
|--------------------------------------------| 
 
|--------------------------------------------------------------------| 
|--------------------------------------------------------------------| 
|--------------------------------------------------------------------| 
|--------------------------------------------------------------------| 
|------2------2------7-----9-----10--------2------2----10----12----9-| 
|-0-0-0--0-0-0--0-0-0---0-0---0-0----0-0-0---0-0-0--0-0---0-0---0-0--| 
|--------------------------------------------------------------------| 
 
|--------------------------------| 
|--------------------------------| 
|--------------------------------| 
|--------------------------------| 
|------2------2-----7----9----10-| 
|-0-0-0--0-0-0--0-0---0-0---0-0--| 
|--------------------------------| 
 
|-------------------------------------------------------------------| 
|-------------------------------------------------------------------| 
|-------------------------------------------------------------------| 
|-------------------------------------------------------------------| 
|------10------10----7-----9-----10-------7------7----10----12----9-| 
|-0-0-0---0-0-0---0-0---0-0---0-0----0-0-0--0-0-0--0-0---0-0---0-0--| 
|-------------------------------------------------------------------| 
 
|--------------------------------------------------------------------| 
|--------------------------------------------------------------------| 
|--------------------------------------------------------------------| 
|--------------------------------------------------------------------| 
|------2------2------7-----9-----10--------2------2----10----12----9-| 
|-0-0-0--0-0-0--0-0-0---0-0---0-0----0-0-0---0-0-0--0-0---0-0---0-0--| 
|--------------------------------------------------------------------| 
 
|----------------------|  |-------------------------------------------| 
|----------------------|  |-------------------------------------------| 
|----------------------|  |-------------------------------------------| 
|----------------------|X2|-------------------------------------------| 
|------7------7------7-|  |------5------5------5------6------6------6-| 
|----------------------|  |-------------------------------------------| 
|-0-0-0--0-0-0--0-0-0--|  |-0-0-0--0-0-0--0-0-0--0-0-0--0-0-0--0-0-0--| 
 
|----------------------|  |-------------------------------------------| 
|----------------------|  |-------------------------------------------| 
|----------------------|  |-------------------------------------------| 
|----------------------|X2|-------------------------------------------| 
|------7------7------7-|  |------5------5------5------6------6------6-| 
|-7-7-7--7-7-7--7-7-7--|  |-7-7-7--7-7-7--7-7-7--7-7-7--7-7-7--7-7-7--| 
|-0-0-0--0-0-0--0-0-0--|  |-0-0-0--0-0-0--0-0-0--0-0-0--0-0-0--0-0-0--| 
 
|-----------------------------------| 
|-----------------------------------| 
|-----------------------------------| 
|-----------------------------------| 
|-5--4--5--4--5-5-5-5--4-4-4-4--5-7-| 
|-3--2--3--2--3-3-3-3--2-2-2-2--3-5-| 
|-----------------------------------| 
 
|---------------|  |-------------------| 
|---------------|  |-------------------| 
|---------------|  |-------------------| 
|---------------|X3|-------------------| 
|-2-------------|  |-----------------2-| 
|-0---2---3---5-|  |-3---2---3---2---0-| 
|-0---0---1---3-|  |-1---0---1---0---0-| 

		  

See also:

tabs Matisyahu - Youth tabs Nino Rota - The goodfather tabs India Arie - Get it together tabs Chris Brown - Say goodbye (intro) tabs Panic! At The Disco - Build God Then We'll Talk tabs Matisyahu - Time Of Your Song
e-chords

Other versions:

tabs Epica - Run For A Fall
auto scroll beats size up size down change color hide chords drawings
tab show chords e-chords YouTube Clip e-chords hide all tabs e-chords go to top tab

share