Robert Johnson

Theyre Red Hot

Robert Johnson

tabs Expert expert

by  PAULLET3

save to print version add songbook text version e-mail correct tuner
chordsukulelecavacokeyboardtabbassdrumsharmonicaflute Guitar Pro
close

there isn't a video lesson for this song

chords

Theyre Red Hot

	  		

E||--8----8----8----8----|--8----8----7----7----| 
B||--8----8----8----8----|--7----7----6----6----| 
G||--9----9----9----9----|--7----7----7----7----| 
D||----------------------|----------------------| 
A||----------------------|----------------------| 
E||----------------------|----------------------| 

E||----------0----0----1----1-------|--1----1----1----1----|--8----8----7----7----| 
B||--0-------1----1----1----1-------|--0----0----0----0----|--5----5----4----4----| 
G||--0-------0----0----2----1-------|----------------------|--5----5----4----4----| 
D||--0----0--2----2----3----1-------|--0----0----0----0----|--5-------------------| 
A||---------------------------------|----------------------|----------------------| 
E||--3----3--------------------1----|--3----3----3----3----|----------------------| 


E||--5----5----3----3----|--2----2----1----1----|------------3----0----| 
B||--2----2----2----2----|--1----1----0----0----|--1----1----1----1----| 
G||--2----2----2----2----|--2----2----0----0----|--0----0----0----0----| 
D||--2----2----2----2----|--0----0----0---------|--2----2----2----2----| 
A||----------------------|----------------------|--3----3----3----3----| 
E||----------------------|----------------------|----------------------| 

E||--8----8----5----5----|--3----5----3----3----|--2----2----2----2----| 
B||--5----5----4----4----|--2----2----2----2----|--1----1----1----1----| 
G||--5----5----4----4----|--2----2----2----2----|--2----2----2----2----| 
D||--5----5--------------|--2----2----2----2----|--0----0----0----0----| 
A||----------------------|----------------------|----------------------| 
E||----------------------|----------------------|----------------------| 

E||--1----1----1----1----|--0----------------|--------------0----| 
B||--0----0----0----0----|--1----------------|--------------1----| 
G||--0----0----0----0----|--3----------------|--------------3----| 
D||-------0----0----0----|--2----------------|--------------2----| 
A||--2----2--------------|--3----------------|--------------3----| 
E||--3----3--------------|-------------------|-------------------| 

E||--1------------1----|--1------------1----|----------------------| 
B||--1------------1----|--1------------1----|-------1---------1----| 
G||--2------------2----|--1------------1----|-------0---------0----| 
D||--3------------3----|--1------------1----|--2----2--------------| 
A||--------------------|--------------------|--3----3----2---------| 
E||--------------------|--------------------|----------------------| 


E||--5----5----3----3----|--2----2----1----1----|--0----0----3----3----| 
B||--2----2----2----2----|--1----1----0----0----|--1----1----1----1----| 
G||--2----2----2----2----|--2----2--------------|--0----0----0----0----| 
D||------------2----2----|--0---------0----0----|--2----2----2----2----| 
A||----------------------|----------------------|--3----3----3----3----| 
E||----------------------|------------3----3----|----------------------| 


E||--2----2----1----1----|--0----0----3----3----|| 
B||--1----1----0----0----|--1----1----1----1----|| 
G||--2----2----0----0----|--0----0----0----0----|| 
D||--0----0--------------|--2----2----2----2----|| 
A||----------------------|--3----3----3----3----|| 
E||------------3----3----|----------------------|| 
		  

See also:

tabs Hot Tuna - Hesitation blues tabs John Lee Hooker - One bourbon, one scotch, one beer tabs Robert Johnson - Me and the devil Blues tabs Allman Brothers Band - Revival tabs Muddy Waters - Same Thing tabs John Wesley Harding - Crystal Blue Persuasion
e-chords

Other versions:

tabs Red Hot Chili Peppers - They're Red Hot tabs Robert Johnson - Theyre Red Hot
auto scroll beats size up size down change color hide chords drawings
tab show chords e-chords YouTube Clip e-chords hide all tabs e-chords go to top tab

share