Robert Johnson

Travelling Riverside Blues

Robert Johnson

tabs

by  BRUNBLAZKOWSKI

save to print version add songbook text version e-mail correct tuner
chordsukulelecavacokeyboardtabbassdrumsharmonicaflute Guitar Pro
close

there isn't a video lesson for this song

chords

Travelling Riverside Blues

	  		


D||----------------12--|--12----12--12--12----3\-0--| 
B||----------------12--|--12----12--12--12----3\-0--| 
G||----------------12--|--12--------12--12----------| 
D||--------------------|----------------------------| 
G||--------------------|----------------------------| 
D||--------------------|----------------------------| 


D||--------------------------------|-----5--5-------5--------| 
B||--------------------------------|----------------------5--| 
G||-----0--0--0--0--0--0--0--0-----|--0-------------------5--| 
D||-----0--3--------3--------------|--0----------------------| 
G||-----------------------------0--|--------0----0-----0-----| 
D||--0-----3--------3--2--1--0-----|-------------------------| 


D||-----------------------|-----5----------------|---------------------------| 
B||--5--5--5--5--------5--|--5--5----------0--3--|--0-----3--0---------------| 
G||--5--5--5--5--------5--|--5--5----------0-----|-----0--3--------0------0--| 
D||--5--5--5--5--------5--|--5-------------------|-----0--------0--0--2/4-0--| 
G||-----------------------|--5-------------------|--------------0------------| 
D||-----------------------|----------------------|---------------------------| 


D||---------------------------------------|--------5--------5----| 
B||-----0-------------------0----------5--|--5--5--5--------5----| 
G||-----0--3----------------0----------5--|--5--5--5--------5----| 
D||--0--0-----0---0--0--2/4----0----0--5--|--5--5--5-------------| 
G||--0--------0---0------------0----0-----|----------------------| 
D||-------------2-------------------------|----------------------| 


D||-----5-----------------|--------3---------------------| 
B||-----5------5----0--3--|--0-----3---------------------| 
G||-----5------5----0-----|-----0-----0---------------0--| 
D||-----5-----------------|-----------------0--0--2/4-0--| 
G||--0--------------------|-----------------0--0---------| 
D||-----------------------|--------------2---------------| 


D||-----------0-----0---------------------|--------------------------| 
B||-----0---------------------0--0--------|--------------------------| 
G||-----0--3--3-----3------0--0--0-----0--|--------------------------| 
D||--------------0-----2/4-0--0-----------|--------------------------| 
G||--0-----3-----0------------------0-----|--5--5--5--5--5--0--0--0--| 
D||---------------------------------------|--------------------------| 


D||--------------------------|--------3--3-----3---------| 
B||--------------------------|-----0--3--3-----3---------| 
G||--------------------------|-----0------------------0--| 
D||--------------------------|--------------------2/4-0--| 
G||--5--5--3--3--5--5--------|--0-----------0------------| 
D||--------------------5--5--|---------------------------| 


D||---------------------------|-----------0------------------0--0----|| 
B||-----0-----0------------0--|-----0-----0-----0------0-----0--0----|| 
G||-----0--3--0-----0------0--|-----0--3--------0------0--------0----|| 
D||--0--------0--0-----2/4----|--0-----------0--0--2/4----0----------|| 
G||--0--------0--0------------|--0-----------0------------0----------|| 
D||---------------------------|--------------------------------------|| 
		  

See also:

tabs Albert King - Born Under A Bad Sign tabs Robert Johnson - Walkin' Blues tabs Blues Songs - Blues Shuffle tabs Blues Brothers - Soul Man tabs Blind Blake - Bad Feeling Blues tabs Stevie Ray Vaughn and Double Trouble - Riviera Paradise
e-chords

Other versions:

tabs Led Zeppelin - Travelling Riverside Blues tabs Robert Johnson - Travelling Riverside Blues
auto scroll beats size up size down change color hide chords drawings
tab show chords e-chords YouTube Clip e-chords hide all tabs e-chords go to top tab

share