Robert Johnson

Love in Vain

Robert Johnson

tabs Expert expert

by  ROWANE

save to print version add songbook text version e-mail correct tuner
chordsukulelecavacokeyboardtabbassdrumsharmonicaflute Guitar Pro
close

there isn't a video lesson for this song

chords

Love in Vain

	  		Intro 
 G7 
-10--10-10-10-10-10-10--10---9---9--9--9--9--9----|-8--8--8--8---8------3--5- 
-12--12-12-12-12-12-12--12---11--11-11-11-11-11---|-10-10-10-10--10---------- 
--------------------------------------------------|------------------(0)----- 
--------------------------------------------------|-------------------------- 
--------------------------------------------------|-------------------------- 
--------------------------------------------------|-------------------------- 
  
  
                            D7                            G 
-3--3--3--3--3--3--3---3-|--2--2--2--2--2--| -----------|-3------------------| 
-------------------------|--1--1--1--1--1--| -----------|-0---------------3--| 
-------------------------|-----------------| -----------|--------------------| 
-3--------2--------2---1-|--0--0--0-----0--| --0--------|--------------------| 
-------------------------|--------0-----0--| --0--------|----------2-2-2-----| 
-------------------------|--------2-----2--| --2--------|-3--------3-3-3-----| 
                                                  And I   followed her to the 
  
 G7 
-1---1--------------|-1--------------------------------------| 
-3------------2/ 3--|-3--------------------------------------| 
--------------0-----|----------------------------------------| 
--------0-0-0-------|----------------------------------------| 
--------2-2-2-------|-2---------2----------2--------2--------| 
-3------3-3-3-------|-3---------3----------3--------3--------| 
station                 with a suitcase in my hand 
  
  
                                C 
-1---1-1--1-------------------|-3-----3----3-----------| 
---3---3--3-------------------|------------------------| 
------------------------------|------------------------| 
------------------------------|--------------------2-2-| 
-2-----2----2--2--------------|-3----------3-----------| 
-3-----3----3--3--------------|------------3-----------| 
              And I followed    her to the station 
  
  
                                G7     D7         G 
-3----------------------------|---1--------2--2-|-3--------------| 
-1----------------------------|-3--------1----1-|-0--------------| 
----------------------------0-|--------0------0-|----------------| 
-2---------2-------2------2---|-----0--0------0-|----------------| 
-3---------3-------3------3---|-----2-----------|-2---2---2---2--| 
------------------------------|-3---------------|-3---3---3---3--| 
   with a suitcase in my hand                           Well  its 
 
 
 
 
 
  
  
 A7                                     D7 
-3------------------------------------|--------2---2----2----------------| 
--------------------------------------|----1-----------------------------| 
--------------------------------------|----------------------------------| 
-------------2--------------2--0------|-0-----------------------------0--| 
-------------0--------------0--0------|-0-----------------------------0--| 
-0-----------------------------0-(2)--|-2------2--------2-------------2--| 
 hard to tell it hard to tell             when all your loves in vain 
  
  
  
 G                                D7 
---(3)--------------------|-(3)---2------------|| 
--------------------------|-----1-1------------|| 
--------------------------|--------------------|| 
----3-------2----1---0----|-------0---0---0----|| 
--------------------------|-------0---0---0----|| 
-x------------------------|-(3)---2---2---2----|| 
    All my loves in vain 
 
 

		  

Full key step upFull key step up
Half key step upHalf key step up
Half key step downHalf key step down
Full key step downFull key step down
hide glossary

See also:

tabs Rival Sons - Open My Eyes tabs Muddy Waters - Champagne & Reefer tabs Robert Johnson - Sweet Home Chicago tabs Blind Boy Fuller - Piccolo Rag tabs John Lee Hooker - Boom Boom (ver. 2) tabs Cowboy Bebop - Rain
e-chords

Other versions:

tabs Robert Johnson - Love in Vain tabs The Rolling Stones - Love In Vain tabs Eric Clapton - Love In Vain Blues
auto scroll beats size up size down change color hide chords drawings
tab show chords e-chords YouTube Clip e-chords hide all tabs e-chords go to top tab

share