Robert Johnson

Phonograph Blues

Robert Johnson

tabs

by  PAULANTUNES

save to print version add songbook text version e-mail correct tuner
chordsukulelecavacokeyboardtabbassdrumsharmonicaflute Guitar Pro
close

there isn't a video lesson for this song

chords

Phonograph Blues

	  		

E||----------9-----------------|--------8--8-----5--0-----0--2--| 
B||-------------10---------10--|-----7-----------------3--------| 
G||----9--9-------------9------|--8-----------5b----------------| 
D||----------------------------|--------------------------------| 
A||----------------------------|-----------------------2--------| 
E||----------------------------|-----------------------0--------| 

E||--5--5--5--5--5--5--5--5--5--|--2-3-2-0--0--0------------| 
B||-----------------------------|---------------------------| 
G||-----------------------------|---------------------------| 
D||--------5-----4--------3-----|--2--------2-----0----0----| 
A||--0--------------------------|-----------2-----2----2----| 
E||-----------------------------|-----------0-----0----0----| 


E||--0-------------------|--5--------------------0--|----------------5--0-----0--| 
B||--5-------------------|-----------------------5--|----------------------4-----| 
G||----------------------|--------------------5/-6--|----------------------------| 
D||-------5----5----5----|-------4----4----4--------|----5--5--5--5--5--4-----4--| 
A||-------0----0----0----|--0----0----0----0--------|----0--0--0--0--0--0-----0--| 
E||----------------------|--------------------------|----------------------------| 


E||-----5--5--4--3--3-------|-----------------------|-----------------------| 
B||-------------------------|-----------------------|-----------------------| 
G||-------------------------|-----------------------|-----------------------| 
D||--2-----2-----2----------|--------------------0--|--------------------2--| 
A||--0-----0-----0-----0----|--0----0----0----0--3--|--0----0----0----0--0--| 
E||--------------------0----|--2----2----2----2-----|--2----2----2----2-----| 


E||-----0-----------5--0-----0--|-----5--5--3--3-----2--------| 
B||-----5-----------------4-----|-----------------5-----------| 
G||-----------------------------|-----------------------------| 
D||--2-----5--5--5--5--4-----4--|--2-----2-----2--------2-----| 
A||--0-----0--0--0--0--0-----0--|--0-----0-----0--------4--2--| 
E||-----------------------------|--------------0-----------0--| 


E||-----------------------|------------------------| 
B||-----------------------|-------1----------------| 
G||-----------------------|----------2--2----2--2--| 
D||--0----0----0----0-----|------------------------| 
A||--2----2----2----2--0--|--0----0-----0----0-----| 
E||--0----0----0----0--2--|--2----2-----2----------| 


E||-----5--5--5--5--5--5--5--5--5--5--|--5--0--0-----0------------| 
B||-----------------------------------|-----------3-----3---------| 
G||-----------------------------------|--2------------------------| 
D||--------5--------4--------3--------|--2-----0--------0----0----| 
A||--0--------------------------------|--------2--------2----2----| 
E||-----------------------------------|--------0--------0----0----| 


E||--------------------|---------------------|--------------------| 
B||--5------------5----|--4----------4--4----|--5--------4--------| 
G||--6------------6----|--5----------5--5----|--6--------5--------| 
D||--5------------5----|--4----------4--4----|--5--------4--------| 
A||--0------------0----|--0----------0--0----|--0--------0--------| 
E||--------------------|---------------------|--------------------| 


E||---------------------|------------------------|-------------------------| 
B||---------------------|-----1------------------|-------------------------| 
G||--6----5----6--------|------------------------|-------------------------| 
D||--5----4----5--------|------------------------|--------------------x----| 
--0----0----0--------|--0-----0----0----0--0--|--0----0----0----0--x-------| 
E||---------------------|--2-----2----2----2--1--|--2----2----2----2-------| 


E||-----0-----------5--0-----0--|--0--0------------------|-----------------------| 
B||-----5-----------------4-----|------------------------|-----------------------| 
G||-----------------------------|--5-----------6---------|-----------------------| 
D||--5-----5--5--5--5--4-----4--|--4-----------5----0----|--0----0----0----0-----| 
A||--0-----0--0--0--0--0-----0--|--0-----0--0--0----2----|--2----2----2----2-----| 
E||-----------------------------|--------0--0-------0----|--0----0----0----0--3--| 


E||------------------------|-----5--5--5--5--5--5--5--5--5--5--| 
B||-------1----------------|--------5-----------------2--------| 
G||----------2--2----2--2--|--2--------------------------------| 
D||------------------------|--------5--------4--------3--------| 
A||--0----0-----0----0-----|--0--------------------------------| 
E||--2----2-----2----------|-----------------------------------| 


E||--5--0--0--0------------|| 
B||------------------------|| 
G||--2---------------------|| 
D||--2-----0-----0----0----|| 
A||--------2-----2----2----|| 
E||--------0-----0----0----|| 
		  

See also:

tabs John Lee Hooker - Boom Boom tabs Robert Johnson - Love in Vain tabs Allman Brothers Band - Little Martha tabs John Lee Hooker - One bourbon, one scotch, one beer tabs Albert King - Born Under A Bad Sign tabs Allman Brothers Band - Jessica
e-chords

Other versions:

tabs Robert Johnson - Phonograph Blues
auto scroll beats size up size down change color hide chords drawings
tab show chords e-chords YouTube Clip e-chords hide all tabs e-chords go to top tab

share