Red

Yours Again

Red

tabs

by  TARIKIKE

save to print version add songbook text version e-mail correct tuner
chordsukulelecavacokeyboardtabbassdrumsharmonicaflute Guitar Pro
close

there isn't a video lesson for this song

chords

Yours Again

	  		

Intro (0:30-0:43) 
 B|--------------------------------------------------------------------------------------| 
F#|--------------------------------------------------------------------------------------| 
 D|--------------------------------------------------------------------------------------| 
 A|-0--0--0--0-0-0--0--0--0--0-0-0--0--0--0--0-0-0--0--0--0--0-0-0--10--10--10--10-10-10-| 
 E|-0--0--0--0-0-0--0--0--0--0-0-0--0--0--0--0-0-0--0--0--0--0-0-0--10--10--10--10-10-10-| 
 A|-0--0--0--0-0-0--0--0--0--0-0-0--0--0--0--0-0-0--0--0--0--0-0-0--10--10--10--10-10-10-| 

 B|--------------------------------------------------------------------------------------| 
F#|--------------------------------------------------------------------------------------| 
 D|--------------------------------------------------------------------------------------| 
 A|-10--10--10--10-10-10--8--8--8--8-8-8--7--7--7--7-7-7---------------------------------| 
 E|-10--10--10--10-10-10--8--8--8--8-8-8--7--7--7--7-7-7---------------------------------| 
 A|-10--10--10--10-10-10--8--8--8--8-8-8--7--7--7--7-7-7---------------------------------| 

Verse (0:57-1:10) 
 B|----------------------------------------------------------------------------------------------| 
F#|----------------------------------------------------------------------------------------------| 
 D|----------------------------------------------------------------------------------------------| 
 A|-0--0--3--0--3--0--0------3--0--3--0--0---3--0--0--0--8-8-8-8-8-8-8----5-5-5-5-5-5--2-2-2-2-2-| 
 E|-0--0--3--0--3--0--0------3--0--3--0--0---3--0--0--0--8-8-8-8-8-8-8----5-5-5-5-5-5--3-3-3-3-3-| 
 A|-0--0--3--0--3--0--0------3--0--3--0--0---3--0--0--0--8-8-8-8-8-8-8----5-5-5-5-5-5--2-2-2-2-2-| 
          .     .            .     .         .                   . 
I stare into the blackness...                                             I want you, I need you 

Chorus (1:11-1:39) 
 B|-------------------------------------------------------------------------------| 
F#|-------------------------------------------------------------------------------| 
 D|-------------------------------------------------------------------------------| 
 A|-8-------3------/10------8-------3------/10------7------8------12--10--3-------| 
 E|-8-(x16)-3-(x8)-/10-(x8)-8-(x16)-3-(x8)-/10-(x4)-7-(3x)-8-(x8)-12--10--3-(x8)--| 
 A|-8-------3------/10------8-------3------/10------7------8------12--10--3-------| 
  Open..      ..your light                  love again 
 B|-------------------------------------------------------------------------------| 
F#|-------------------------------------------------------------------------------| 
 D|-------------------------------------------------------------------------------| 
 A|-/10------8-------7------10----------------------------------------------------| 
 E|-/10-(x8)-8-(x12)-7-(x6)-10-(x8)-----------------------------------------------| 
 A|-/10------8-------7------10----------------------------------------------------| 
                       I'm yours again 

2nd Verse (2:07-2:20) 
 B|----------------------------------------------------------------------------------------------| 
F#|----------------------------------------------------------------------------------------------| 
 D|----------------------------------------------------------------------------------------------| 
 A|-0--0--3--0--3--0--0------3--0--3--0--0---3--0--0--0--8-8-8-8-8-8-8----5-5-5-5-5-5--2-2-2-2-2-| 
 E|-0--0--3--0--3--0--0------3--0--3--0--0---3--0--0--0--8-8-8-8-8-8-8----5-5-5-5-5-5--3-3-3-3-3-| 
 A|-0--0--3--0--3--0--0------3--0--3--0--0---3--0--0--0--8-8-8-8-8-8-8----5-5-5-5-5-5--2-2-2-2-2-| 
          .     .            .     .         .                   .               
                                                                            I won't let go again! 
2nd Chorus (2:21-2:48) 
 B|------------------------------------------------------------------------------------| 
F#|------------------------------------------------------------------------------------| 
 D|------------------------------------------------------------------------------------| 
 A|-8-------3------/10------8-------3------/10------7------8------12-12-12-10--3-------| 
 E|-8-(x16)-3-(x8)-/10-(x8)-8-(x16)-3-(x8)-/10-(x4)-7-(3x)-8-(x8)-12-12-12-10--3-(x8)--| 
 A|-8-------3------/10------8-------3------/10------7------8------12-12-12-10--3-------| 
  Open..      ..your light                  love again 
 B|------------------------------------------------------------------------------------| 
F#|------------------------------------------------------------------------------------| 
 D|------------------------------------------------------------------------------------| 
 A|-/10------8-------7------10---------------------------------------------------------| 
 E|-/10-(x8)-8-(x12)-7-(x6)-10-(x8)----------------------------------------------------| 
 A|-/10------8-------7------10---------------------------------------------------------| 
                       I'm yours again 
Bridge (2:49-3:16) 
 B|-------------------------------------------------------------------------------| 
F#|-------------------------------------------------------------------------------| 
 D|-------------------------------------------------------------------------------| 
 A|-10--10-10--7--7--7--7--7------------------------------------------------------|  x2 
 E|-8---8--8---5--5--5--5--5--(x3)------------------------------------------------| 
 A|-8---8--8---5--5--5--5--5--------8-7-0-0-12-0--8-8-7-0-10-0-5-5----------------| 
Starts at "again" 

3rd Chorus (3:34-4:16)  
 B|-------------------------------------------------------------------------------| 
F#|-------------------------------------------------------------------------------| 
 D|-------------------------------------------------------------------------------| 
 A|-8-------3------/10------8-------3-----/10------7------------------------------| 
 E|-8-(x16)-3-(x8)-/10-(x8)-8-(x16)-3(x8)-/10-(x8)-7-(x3)-------------------------| 
 A|-8-------3------/10------8-------3-----/10------7------------------------------| 

 B|-------------------------------------------------------------------------------------| 
F#|-------------------------------------------------------------------------------------| 
 D|-------------------------------------------------------------------------------------| 
 A|-8-------3------/10------8-------3------/10------7------8------12-12-12--10--3-------| 
 E|-8-(x16)-3-(x8)-/10-(x8)-8-(x16)-3-(x8)-/10-(x4)-7-(3x)-8-(x8)-12-12-12--10--3-(x8)--| 
 A|-8-------3------/10------8-------3------/10------7------8------12-12-12--10--3-------| 
  Open..      ..your light                  love again 
 B|-------------------------------------------------------------------------------| 
F#|-------------------------------------------------------------------------------| 
 D|-------------------------------------------------------------------------------| 
 A|-/10------8-------7------10----------------------------------------------------| 
 E|-/10-(x8)-8-(x12)-7-(x6)-10-(x8)-----------------------------------------------| 
 A|-/10------8-------7------10----------------------------------------------------| 
                      I'm yours again 

************************************ 

| /   slide up 
| \   slide down 
| h   hammer-on 
| p   pull-off 
| ~   vibrato 
| +   harmonic 
| x   Mute note 
| b   Bend 
| pb  Pre-bend 
| br  Bend release 
| pbr Pre-bend release 
| brb Bend release bend 

************************************ 
		  

auto scroll beats size up size down change color hide chords drawings
tab show chords e-chords YouTube Clip e-chords hide all tabs e-chords go to top tab

share