Red

The Forest

Red

tabs

by  JESSGOMES

save to print version add songbook text version e-mail correct tuner
chordsukulelecavacokeyboardtabbassdrumsharmonicaflute Guitar Pro
close

there isn't a video lesson for this song

chords

The Forest

	  		Strings (0:06-0:19) 
e|--------------12---10-------------15---17----------------------------------| 
B|------10----------------11---10--------------------------------------------| 
G|---------------------------------------------------------------------------| 
D|-12------------------------------------------------------------------------| 
A|---------------------------------------------------------------------------| 
E|---------------------------------------------------------------------------| 

(0:19-0:27) 
e|-12--------17---15---13-12-------------------------------------------------| 
B|--------13-----------------13----------------------------------------------| 
G|------------------------------12-10----------------------------------------| 
D|------------------------------------12-------------------------------------| 
A|---------------------------------------------------------------------------| 
E|---------------------------------------------------------------------------| 

(0:27-0:40) 
e|--------------12---10-------------15---17----------------------------------| 
B|------10----------------11---10--------------------------------------------| 
G|---------------------------------------------------------------------------| 
D|-12------------------------------------------------------------------------| 
A|---------------------------------------------------------------------------| 
E|---------------------------------------------------------------------------| 

(0:40-0:48) 
e|-12--------17---15---13-12-------------------------------------------------| 
B|--------13-----------------13----------------------------------------------| 
G|------------------------------12-10----------------------------------------| 
D|------------------------------------12-------------------------------------| 
A|---------------------------------------------------------------------------| 
E|---------------------------------------------------------------------------| 

(0:48-0:55) (The music fades away) 
e|--------------12---10------------------------------------------------------| 
B|------10-------------------------------------------------------------------| 
G|---------------------------------------------------------------------------| 
D|-12------------------------------------------------------------------------| 
A|---------------------------------------------------------------------------| 
E|---------------------------------------------------------------------------| 

Piano (0:00-0:05) 
e|-------12----12-15-11-10-------------------10----10-15-11-10---------------| 
B|-12-13----13-------------11-10-11----10-11----11-------------11-10-11------| 
G|----------------------------------12----------------------------------12---| 
D|---------------------------------------------------------------------------| 
A|---------------------------------------------------------------------------| 
E|---------------------------------------------------------------------------| 

(0:05-0:10) 
e|-------10----10-17-13-12-------------------12----12-17-13-12---------------| 
B|-10-11----11-------------13-12-13-10-12-13----13-------------13-12-13-10---| 
G|---------------------------------------------------------------------------| 
D|---------------------------------------------------------------------------| 
A|---------------------------------------------------------------------------| 
E|---------------------------------------------------------------------------| 

(0:10-0:15) 
e|-------12----12-15-11-10-------------------10----10-15-11-10---------------| 
B|-12-13----13-------------11-10-11----10-11----11-------------11-10-11------| 
G|----------------------------------12----------------------------------12---| 
D|---------------------------------------------------------------------------| 
A|---------------------------------------------------------------------------| 
E|---------------------------------------------------------------------------| 

(0:15-0:20) 
e|-------10----10-17-13-12-------------------12----12-17-13-12---------------| 
B|-10-11----11-------------13-12-13-10-12-13----13-------------13-12-13-10---| 
G|---------------------------------------------------------------------------| 
D|---------------------------------------------------------------------------| 
A|---------------------------------------------------------------------------| 
E|---------------------------------------------------------------------------| 

(0:20-0:25) 
e|-------12----12-15-11-10-------------------10----10-15-11-10---------------| 
B|-12-13----13-------------11-10-11----10-11----11-------------11-10-11------| 
G|----------------------------------12----------------------------------12---| 
D|---------------------------------------------------------------------------| 
A|---------------------------------------------------------------------------| 
E|---------------------------------------------------------------------------| 

(0:25-0:31) 
e|-------10----10-17-13-12-------------------12----12-17-13-12---------------| 
B|-10-11----11-------------13-12-13-10-12-13----13-------------13-12-13-10---| 
G|---------------------------------------------------------------------------| 
D|---------------------------------------------------------------------------| 
A|---------------------------------------------------------------------------| 
E|---------------------------------------------------------------------------| 

(0:31-0:36) 
e|-------12----12-15-11-10-------------------10----10-15-11-10---------------| 
B|-12-13----13-------------11-10-11----10-11----11-------------11-10-11------| 
G|----------------------------------12----------------------------------12---| 
D|---------------------------------------------------------------------------| 
A|---------------------------------------------------------------------------| 
E|---------------------------------------------------------------------------| 

(0:36-0:41) 
e|-------10----10-17-13-12-------------------12----12-17-13-12---------------| 
B|-10-11----11-------------13-12-13-10-12-13----13-------------13-12-13-10---| 
G|---------------------------------------------------------------------------| 
D|---------------------------------------------------------------------------| 
A|---------------------------------------------------------------------------| 
E|---------------------------------------------------------------------------| 

(0:41-0:47) 
e|-------12----12-15-11-10-------------------10----10-15-11-10---------------| 
B|-12-13----13-------------11-10-11----10-11----11-------------11-10-11------| 
G|----------------------------------12----------------------------------12---| 
D|---------------------------------------------------------------------------| 
A|---------------------------------------------------------------------------| 
E|---------------------------------------------------------------------------| 

(0:47-0:52) 
e|-------10----10-17-13-12-------------------12----12-17-13-12---------------| 
B|-10-11----11-------------13-12-13-10-12-13----13-------------13-12-13-10---| 
G|---------------------------------------------------------------------------| 
D|---------------------------------------------------------------------------| 
A|---------------------------------------------------------------------------| 
E|---------------------------------------------------------------------------| 

(0:52-0:55) (The music fades away) 
e|-------12----12-15-11-10---------------------------------------------------| 
B|-12-13----13-------------11-10-11------------------------------------------| 
G|---------------------------------------------------------------------------| 
D|---------------------------------------------------------------------------| 
A|---------------------------------------------------------------------------| 
E|---------------------------------------------------------------------------| 

************************************ 

| /   slide up 
| \   slide down 
| x   Mute note 

************************************ 
		  

auto scroll beats size up size down change color hide chords drawings
tab show chords e-chords YouTube Clip e-chords hide all tabs e-chords go to top tab

share