Red

Shadow And Soul

Red

tabs

by  ALEFFEDERICO

save to print version add songbook text version e-mail correct tuner
chordsukulelecavacokeyboardtabbassdrumsharmonicaflute Guitar Pro
close

there isn't a video lesson for this song

chords

Shadow And Soul

	  		Tuning: Drop Bb 
Intro 
C |-------------------------------------------------------------| 
G |-------------------------------------------------------------| 
Eb|---------7---------------------------7-----------------------| 
Bb|-0---0-6-----0-6-0---0-0-6-5-0---0-6-----0-6-0---0-0-7-8-7-8-| 
F |-0---0-6-5---0-6-0---0-0-6-5-0---0-6-5---0-6-0---0-0-7-8-7-8-| 
Bb|-0---0-6-----0-6-0---0-0-6-5-0---0-6-----0-6-0---0-0-7-8-7-8-| 

C |-------------------------------------------------------------| 
G |-------------------------------------------------------------| 
Eb|---------7---------------------------7-----------------------| 
Bb|-0---0-6-----0-6-0---0-0-6-5-0---0-6-----0-6-0---0-3-6-0-5-8-| 
F |-0---0-6-5---0-6-0---0-0-6-5-0---0-6-5---0-6-0---0-3-6-0-5-8-| 
Bb|-0---0-6-----0-6-0---0-0-6-5-0---0-6-----0-6-0---0-3-6-0-5-8-| 

verse 1 Guitar Lick 1 ('Buried, I kept you, Helpless, I'm reaching out') 
C |-----------------------------------------------------------------| 
G |-----------------------------------------------------------------| 
Eb|-----------------------------------------------------------------| 
Bb|-----------------------------------------------------------------| 
F |---------5-5-8-8---------5-5-8-8---------5-5-8-8---------5-5-8-8-| 
Bb|-0-0-8-8---------0-0-8-8---------0-0-7-7---------0-0-7-7---------| 

C |-----------------------------------------------------------------| 
G |-----------------------------------------------------------------| 
Eb|-----------------------------------------------------------------| 
Bb|-------------5-5-------------5-5-------------4-4-------------4-4-| 
F |---------5-5-------------5-5-------------5-5-------------5-5-----| 
Bb|-0-0-8-8---------0-0-8-8---------0-0-7-7---------0-0-7-7---------| 

verse 1 Guitar Lick 2 (After 'Waiting for me') 
C |---------------------------------| 
G |---------------------------------| 
Eb|---------------------------------| 
Bb|-0-7-8-7-0-7-8---0-5-8-7-0-5-7---| 
F |-0-7-8-7-0-7-8---0-5-8-7-0-5-7---| 
Bb|-0-7-8-7-0-7-8---0-5-8-7-0-5-7---| 

Chorus 1 ('Shadow and soul...') (Strum) 
C |-----------------| 
G |-----------------| 
Eb|-----------------| 
Bb|-8---3---7---8---|   x2 
F |-8---3---7---8---| 
Bb|-8---3---7---8---| 

Interlude (Same as intro) 

verse 2 (Same as verse 1) 

Chorus 2 (Same as Chorus 1) 

Bridge Part 1 
C |-------------------------------------------------| 
G |-------------------------------------------------| 
Eb|-------------------------------------------------| 
Bb|-8-8-8-8-8---3-3-3-3-3---6-6-6-6-6---1-1-1-1-1---| 
F |-8-8-8-8-8---3-3-3-3-3---6-6-6-6-6---1-1-1-1-1---| 
Bb|-8-8-8-8-8---3-3-3-3-3---6-6-6-6-6---1-1-1-1-1---| 

C |-----------------------------------------------------| 
G |-----------------------------------------------------| 
Eb|-----------------------------------------------------| 
Bb|-8-8-8-8-8---3-3-3-3-3---6-6-6-6-6---8-8-8-8-4-4-4-4-| 
F |-8-8-8-8-8---3-3-3-3-3---6-6-6-6-6---5-5-5-5-4-4-4-4-| 
Bb|-8-8-8-8-8---3-3-3-3-3---6-6-6-6-6---5-5-5-5-4-4-4-4-| 

Bridge Part 2 
C |-------------------------------------------------------------------------------| 
G |-------------------------------------------------------------------------------| 
Eb|-------------------------------------------------------------------------------| 
Bb|-------------------------------------------------------------------------------| 
F |-------------------------------------------------------------------------------| 
Bb|-4-(x16)-5-(x16)-6-(x16)-7-(x16)-8-(x16)-10-(x8)-6-(x8)-11-(x16)-5-(x8)-4-(x8)-| 

 
		  

Full key step upFull key step up
Half key step upHalf key step up
Half key step downHalf key step down
Full key step downFull key step down
hide glossary

See also:

tabs Flatt & Scruggs - Dueling Banjos (lmofle Version) tabs Bleach - Chu-bura tabs Jars of Clay - Overjoyed tabs 12-Stones - Photograph tabs Brad Paisley - The Old Rugged Cross (ver. 2) tabs Jars of Clay - Like A Child
e-chords

Other versions:

tabs Red - Shadow And Soul
auto scroll beats size up size down change color hide chords drawings
tab show chords e-chords YouTube Clip e-chords hide all tabs e-chords go to top tab

share