Red Hot Chili Peppers

home > Red Hot Chili Pepp...

This Velvet Glove Tab

Red Hot Chili Peppers

Difficulty: IntermediateIntermediate

tuner correct add songbook print version text version save to e-mail
chordsukulelecavacokeyboardtabbassdrummharmonicsflute Guitar Pro
chords

This Velvet Glove

Year: 1999 - Album: Californication

  		Intro: Dm - C - Bb

|-1-----3-----1-----|
|-3-----5-----3-----|
|-2-----5-----3-----|
|-0-----5-----3-----|
|-------3-----1-----|
|-------------------|

Intro ( guitar2 ) : 

|-------------------------|
|-------------------------|
|----5-7---5-7------------| X2
|-7------5-----3-2-3-2-3/2|
|-------------------------|
|-------------------------|

|----------------5-------------8-8-|
|-8--6-5------------8-5--------8-8-|
|---------5--7-----------5--7------|
|----------------------------------|
|----------------------------------|
|----------------------------------|

( Dm  C  Bb )

Close to my skin
Im falling in   
Someone whos been
Sitting by the phone
Im left alone
In another zone
John says to live above hell
My will is well
No one is waiting
For me to fail
My will could sail yeah    ( Dm  C  Bb )
Its such a waste to be wasted
In the first place
I want to tasted the taste of
Being face to face with common grace
To meditate on the warmest dream
And when I walk alone I listen
To our secret theme
( Dm  Am )
You solar eyes are like
Nothing I have ever seen 
Somebody close 
That can see right through
Id take a fall and you know
That Id do anything
C                  Am
I will for you
( Dm  C  Bb )
Sailing for the sun 
Cause there is one
Knows were Im from
I care for you
I really do I really do
Come closer now 
So you can lie 
Right by my side 
Sit alone in the sun
I wrote a letter to you 
Getting over my self
 
( Dm  Am )
You solar eyes are like 
Nothing I have you ever seen 
Somebody close 
That can see right through
Id take a fall and you know
That Id do anything
C                  Am
I will for you
You solar eyes are like
Nothing I have ever seen 
Somebody close
That was made for you
Id take a fall and you know
That Id do anything
I will for you
( Dm  C  Bb )
Close to my skin
Someone whos been
Im falling in
Disasters are 
Just another star 
Falling in my yard
John says to live above hell
My will is well
Long to be with
Someone to tell
I love your smell

Ae tipow fica sempre um riff no destaque e eh esse aki oh
e-5---5--5--5---8-8-6
B-6---6--6--6---8-8-5...
	  

Full key step upFull key step up
Half key step upHalf key step up
Half key step downHalf key step down
Full key step downFull key step down
Search Paypal
auto scroll beats size up size down change color hide chords drawings
tab show chords e-chords YouTube Clip e-chords hide all tabs e-chords go to top tab