Red Hot Chili Peppers

home > Red Hot Chili Pepp...

This Is The Place Tab

Red Hot Chili Peppers

Difficulty: IntermediateIntermediate

tuner correct add songbook print version text version save to e-mail
chordsukulelecavacokeyboardtabbassdrummharmonicsflute Guitar Pro
chords

This Is The Place

Year: 2002 - Album: By The Way

  		
Riff 1 (Toque diversas vezes com P.M. e no último acorde toque sem P.M.):
    (PM)(PM)(PM)(PM)(PM)(PM)(Sem PM)
E||--12--12--12--12--12--12----12--||
B||--13--13--13--13--13--13----13--||
G||--14--14--14--14--14--14----14--||
D||--14--14--14--14--14--14----14--||
A||--------------------------------||
E||--------------------------------||


Riff 2:
E|----------12--------------------15-12----------------12-------------
B|-------------13-----------------------13----------------13----------
G|------14--------14----------14-------------------14--------14-------
D|---14--------------------14-------------------14--------------------
A|-12--------------------12-------------------12----------------------
E|--------------------------------------------------------------------

E|--0-----0-----0-----0-----0----
B|--15----15----13----15----13---
G|--14----14----14----14----14---
D|--0-----0-----0-----0-----0----
A|-------------------------------
E|-------------------------------


Riff 3:
E|---------------------------------------------------------
B|---------------------------------------------------------
G|-----------------14--------------------------------------
D|-12--14------12----------12--14--12--10-----10--12--10---
A|---------------------------------------------------------
E|---------------------------------------------------------

E|---------------------------------------------------------
B|---------------------------------------------------------
G|-----------------14--------------------------------------
D|-12--14------12----------12--14--12--10-----10--12-------
A|----------------------------------------------------12---
E|---------------------------------------------------------


Riff 4 (Feito pelo Baixo. Este Riff é tocado por toda a música!!!):
G||--------------------------|--------------------------|
D||--------------------------|--------------------------|
A||--0--0--0--3--3-----------|-----------------0--0--0--|
E||-----------------3--3--3--|--1--1--1--3--3-----------|

G||--------------------------|--------------------------||
D||--------------------------|--------------------------||
A||--5--5--5--0--0-----------|--3--3--3--------5--5--5--||
E||-----------------1--1--1--|-----------3--3-----------||


Acordes usados na passagem acústica:
     F     C     D
E:---1-----0-----5-----------------
B:---1-----1-----5-----------------
G:---2-----0-----7-----------------
D:---3-----2-----7-----------------
A:---3-----3-----5-----------------
E:---1-----------------------------


----****----
Música
----****----

Intro: Riff 4 + Riff 1

Riff 1(2x)
this is the place 
where all the junkies go
where time gets fast but everything gets slow

Riff 1(2x)
can i get some vabeline
step into a modern scene
take a chance on that
which seems to be
the making of a dream

Riff 1(2x)
i don't want to do it
like my daddy did
i don't want to give it
to my babys kid


Riff 2(2x)
this is my calling

Riff 1(1x)

Riff 1(2x)
this is the place
where all the devils plead
their case to take from you
what they need

Riff 1(2x)
can i isolate your gene
can i kiss your dopamine
i a way i wonder
if she's living in a machine

Riff 1(2x)
i don't want to say it
if it isn't so
i don't want to weigh it
but i've got to know


Riff 2(2x)
this is my calling

(Passagem): Riff 3(2x)


F	     C		    D
  i saw you out there yesterday
what did you want to say

F	     C	   D
  a master piece of DNA
caught in a flashing ray

F	        C		  D
  i caught you out there in the fray
what did you want to say

F	     C	   D
  a master piece of DNA
caught in a flashing ray


Riff 4(2x)
can i smell your gasoline
can i pet your wolferine
on the way my best friend died
i could not get my copper clean

Riff 1(2x)
i don't want to take it up
with little joe
i don't want to fake it
so i've got to go


Riff 2(2x)
this is my calling...


Riff 3(1x)
i am a misfit
i'm born with all of it
the fucking ultimate
of love inside the atom split

Riff 3(1x)
i'm in a flash ray
a mash of DNA
anothers poppin jay
who thinks he's got
something to say


Final:  Riff 3(2x)
	  

Full key step upFull key step up
Half key step upHalf key step up
Half key step downHalf key step down
Full key step downFull key step down
Search Paypal
auto scroll beats size up size down change color hide chords drawings
tab show chords e-chords YouTube Clip e-chords hide all tabs e-chords go to top tab