Red Hot Chili Peppers

home > Red Hot Chili Pepp...

Stadium arcadium Tab

Red Hot Chili Peppers

Difficulty: IntermediateIntermediate

by europeu

tuner correct add songbook print version text version save to e-mail
chordsukulelecavacokeyboardtabbassdrumsharmonicsflute Guitar Pro
chords

Stadium arcadium

Year: 2006 - Album: Stadium Arcadium

  		{Intro} 
 
   F#		       A		   F#		       A         E 
e|-------------------|-------------------|-------------------|-0---------0-------| 
H|-------------------|-------2------2----|-------------------|-2---------0-------| 
G|-------2------2----|-----2------2------|-------2------2----|-2---------1-------| 
D|-----4------4------|---2------2--------|-----4------4------|-2---------2-------| 
A|---4------4--------|-0-----------------|---4------4--------|-0---------2-------| 
E|-2-----------------|-------------------|-2-----------------|-----------0-------| 
 
{Verse} 
 
   F#		       A		   F#		       A         E 
e|-------------------|-------------------|-------------------|-0---------0-------| 
H|-------------------|-------2------2----|-------------------|-2---------0-------| 
G|-------2------2----|-----2------2------|-------2------2----|-2---------1-------| 
D|-----4------4------|---2------2--------|-----4------4------|-2---------2-------| 
A|---4------4--------|-0-----------------|---4------4--------|-0---------2-------| 
E|-2-----------------|-------------------|-2-----------------|-----------0-------| 
  Bells around St. Petersburg   	   I hope I get what you deserve 
  When I saw you			   And this is where I find 
 
   F#		       A		           F#		       A         E 
e|-------------------|---------------------------|-------------------|-0---------0-------| 
H|-------------------|-------2------2-2h3-2h3----|-------------------|-2---------0-------| 
G|-------2------2----|-----2------2------------2-|-------2------2----|-2---------1-------| 
D|-----4------4------|---2------2----------------|-----4------4------|-2---------2-------| 
A|---4------4--------|-0-------------------------|---4------4--------|-0---------2-------| 
E|-2-----------------|---------------------------|-2-----------------|-----------0-------| 
  Smoke surrounds your perfect face        	   Pushing a broom out into space 
  And I'm falling			  	   And this is where I find a way 
 
{Chorus} 
 
   B   D   A   E 
e|---|---|---|---| 
H|---|-3-|-2-|---| 
G|-4-|-2-|-2-|-1-|  2x 
D|-4-|-0-|-2-|-2-| 
A|-2-|-0-|-0-|-2-| 
E|-2-|---|---|-0-| 
 
The stadium arcadium 
A mirrow to the moon (A mirror to the moon) 
Well, I'm forming and I'm warming 
State of the art 
until the clouds come crashing 
Stranger things have happened both,  
before and afternoon (before and afternoon) 
Well, I'm forming and I'm warming 
Pushing myself 
And no I don't mind asking 
Now 
 
{Verse} 
 
  (2 Guitar) 
e|-2-------------0---|-------------------| 
B|-------------------|-2-----------------| 
G|-------------------|-------------------| 
D|-------------------|-------------------| 
A|-------------------|-------------------| 
E|-------------------|-------------------| 
 
e|-------------------|-------------------|-------------------| 
B|-2-------------0---|-------------------|-------------------| 
G|-------------------|-2--------1--------|-------------------| 
D|-------------------|-------------------|-4-----------------| 
A|-------------------|-------------------|-------------------| 
E|-------------------|-------------------|-------------------| 
   
  (1 Guitar) 
   F#		       A		   F#		       A         E 
e|-------------------|-------------------|-------------------|-0---------0-------| 
H|-------------------|-------2------2----|-------------------|-2---------0-------| 
G|-------2------2----|-----2------2------|-------2------2----|-2---------1-------| 
D|-----4------4------|---2------2--------|-----4------4------|-2---------2-------| 
A|---4------4--------|-0-----------------|---4------4--------|-0---------2-------| 
E|-2-----------------|-------------------|-2-----------------|-----------0-------| 
 
   F#		       A		   F#		       A         E 
e|-------------------|-------------------|-------------------|-0---------0-------| 
H|-------------------|-------2------2----|-------------------|-2---------0-------| 
G|-------2------2----|-----2------2------|-------2------2----|-2---------1-------| 
D|-----4------4------|---2------2--------|-----4------4------|-2---------2-------| 
A|---4------4--------|-0-----------------|---4------4--------|-0---------2-------| 
E|-2-----------------|-------------------|-2-----------------|-----------0-------| 
   Alone inside my forest room		   I never thought I'd be in bloom 
   And it's storming			   But this is where I start 
 
   F#		       A		     F#		         A         E 
e|-------------------|---------------------|-------------------|-0---------0-------| 
H|-------------------|-------2------2------|-------------------|-2---------0-------| 
G|-------2------2----|-----2------2--------|-------2------2----|-2---------1-------| 
D|-----4------4------|---2------2----------|-----4------4------|-2---------2-------| 
A|---4------4--------|-0-------------------|---4------4--------|-0---------2-------| 
E|-2-----------------|------------------2^-|-2-----------------|-----------0-------| 
   Derelict days and the stereo plays        Tedious weeds That the media breeds 
   For all the night crowed   		     But the animal gets what the animal needs 
   That it cannot phase			     And I'm sorry 
   And I'm calling 
 
{Chorus} 
 
   B   D   A   E 
e|---|---|---|---| 
H|---|-3-|-2-|---| 
G|-4-|-2-|-2-|-1-|  2x 
D|-4-|-0-|-2-|-2-| 
A|-2-|-0-|-0-|-2-| 
E|-2-|---|---|-0-| 
 
The stadium arcadium 
A mirrow to the moon (A mirror to the moon) 
Well, I'm forming and I'm warming 
State of the art 
until the clouds come crashing 
Stranger things have happened both,  
before and afternoon (before and afternoon) 
Well, I'm forming and I'm warming 
Pushing myself 
And no I don't mind asking 
 
 
{Solo} 
 
e|--------------------------------|----------------------------------| 
H|--------------------------------|----------------------------------| 
G|-------------------11-9---11-9--|--------------------9-------------| 
D|------------------------9-------|---------------9/11---11-9-9/11---| 
A|--------------------------------|----------------------------------| 
E|--------------------------------|----------------------------------| 
 
e|--------------------------------|----------------------------------| 
H|---------------------9----------|----------------------------------| 
G|------------------11------------|-------------------9-11-----------| 
D|-------------9/11------11p9-9-7-|----------4-----11------11--9-----| 
A|--------------------------------|----------------------------------| 
E|--------------------------------|----------------------------------| 
 
e|--------------------------------|----------------------------------| 
H|----------------10-9----9/10----|------11/12--------10-9-9/10------| 
G|-------------11------11------11-|-----------------------------11---| 
D|--------------------------------|----------------------------------| 
A|--------------------------------|----------------------------------| 
E|--------------------------------|----------------------------------| 
 
e|--------------------------------|----------------------------------| 
H|--------------------------------|----------------------------------| 
G|-------------------11--9-10/11--|--------------------9-------------| 
D|--------------------------------|------------7/-9-11---119-9/11----| 
A|--------------------------------|----------------------------------| 
E|--------------------------------|----------------------------------| 
 
e|---------------11---------------|---------9------------------------| 
H|------------14----12------------|-----------12---12----------------| 
G|---------------------11---------|-------------------11/-12-9/11----| 
D|---------11-------------10-9/11-|----------------------------------| 
A|--------------------------------|----------------------------------| 
E|--------------------------------|----------------------------------| 
 
{Verse} 
 
   F#		       A		   F#		       A         E 
e|-------------------|-------------------|-------------------|-0---------0-------| 
H|-------------------|-------2------2----|-------------------|-2---------0-------| 
G|-------2------2----|-----2------2------|-------2------2----|-2---------1-------| 
D|-----4------4------|---2------2--------|-----4------4------|-2---------2-------| 
A|---4------4--------|-0-----------------|---4------4--------|-0---------2-------| 
E|-2-----------------|-------------------|-2-----------------|-----------0-------| 
							       And this is where I find 
 
   F#		       A		           F#		       A         E 
e|-------------------|---------------------------|-------------------|-0---------0-------| 
H|-------------------|-------2------2-2h3-2h3----|-------------------|-2---------0-------| 
G|-------2------2----|-----2------2------------2-|-------2------2----|-2---------1-------| 
D|-----4------4------|---2------2----------------|-----4------4------|-2---------2-------| 
A|---4------4--------|-0-------------------------|---4------4--------|-0---------2-------| 
E|-2-----------------|---------------------------|-2-----------------|-----------0-------| 
   Rays of dust that wrap around		   Kind enough to disavow 
   Your citizen					   And this is where I stand 
 
{Chorus} 
 
   B   D   A   E 
e|---|---|---|---| 
H|---|-3-|-2-|---| 
G|-4-|-2-|-2-|-1-|  2x 
D|-4-|-0-|-2-|-2-| 
A|-2-|-0-|-0-|-2-| 
E|-2-|---|---|-0-| 
 
The stadium arcadium 
A mirrow to the moon (A mirror to the moon) 
Well, I'm forming and I'm warming 
State of the art 
until the clouds come crashing 
Stranger things have happened both,  
before and afternoon (before and afternoon) 
Well, I'm forming and I'm warming 
Pushing myself 
And no I don't mind asking 
 
{Outro} 
 
   B   D   A   E 
e|-2-|-2-|-0-|-0-| 
H|-3-|-3-|-2-|-0-| 
G|-4-|-2-|-2-|-1-|  2x 
D|-4-|-0-|-2-|-2-| 
A|-2-|-0-|-0-|-2-| 
E|---|---|---|-0-| 
 
The stadium arcadium 
A mirrow to the moon (A mirror to the moon) 
Well, I'm forming and I'm warming 
State of the art 
until the clouds come crashing 
Stranger things have happened both,  
before and afternoon (before and afternoon) 
Well, I'm forming and I'm warming 
To you 
 
 
 
 
Lyrics 
 
Red Hot Chili Peppers - Stadium Arcadium 
 
 
Bells around St. Petersburg 
When I saw you 
 
I hope I get what you deserve 
And this is where I find 
 
Smoke surrounds your perfect face 
And I'm falling 
 
Pushing a broom out into space 
And this is where I find a way 
 
The stadium arcadium 
A mirrow to the moon (A mirror to the moon) 
Well, I'm forming and I'm warming 
State of the art 
until the clouds come crashing 
Stranger things have happened both,  
before and afternoon (before and afternoon) 
Well, I'm forming and I'm warming 
Pushing myself 
And no I don't mind asking 
Now 
 
Alone inside my forest room 
And it's storming 
 
I never thought I'd be in bloom 
But this is where I start 
 
Derelict days and the stereo plays 
For all the night crowed 
That it cannot phase 
And I'm calling 
 
Tedious weeds That the media breeds 
But the animal gets what the animal needs 
And I'm sorry 
 
The stadium arcadium 
A mirrow to the moon (A mirror to the moon) 
Well, I'm forming and I'm warming 
State of the art 
until the clouds come crashing 
Stranger things have happened both,  
before and afternoon (before and afternoon) 
Well, I'm forming and I'm warming 
Pushing myself 
And no I don't mind asking 
 
And this is where I find 
 
Rays of dust that wrap around 
Your citizen 
 
Kind enough to disavow 
And this is where I stand 
 
The stadium arcadium 
A mirrow to the moon (A mirror to the moon) 
Well, I'm forming and I'm warming 
State of the art 
until the clouds come crashing 
Stranger things have happened both,  
before and afternoon (before and afternoon) 
Well, I'm forming and I'm warming 
Pushing myself 
And no I don't mind asking 
 
The stadium arcadium 
A mirrow to the moon (A mirror to the moon) 
Well, I'm forming and I'm warming 
State of the art 
until the clouds come crashing 
Stranger things have happened both,  
before and afternoon (before and afternoon) 
Well, I'm forming and I'm warming 
To you 

	  

Full key step upFull key step up
Half key step upHalf key step up
Half key step downHalf key step down
Full key step downFull key step down
Search Paypal
auto scroll beats size up size down change color hide chords drawings
tab show chords e-chords YouTube Clip e-chords hide all tabs e-chords go to top tab