Red Hot Chili Peppers

home > Red Hot Chili Pepp...

Single-note funk Tab

Red Hot Chili Peppers

Difficulty: nolevelnolevel

by europeu

tuner correct add songbook print version text version save to e-mail
chordsukulelecavacokeyboardtabbassdrumsharmonicsflute Guitar Pro
chords

Single-note funk

  		Moderately Slow BPS=84 
4/4 
Pinch Harmonic=P.H. 
E A D G B e 
pick hard 
                                                                                                         . .   ....  ...  sim.    >~~                                                                                                                                                                                          
e|-----|----------------------|------------------6--------| 
B|-----|----------------------|------------------6----^3--| 
G|-----|----3-------5-3---3--.|----5----3---5(5)----55--5-| 
D|-3-5-|-555---355---5-5----5-|-355---55-5----------------| 
A|-----|----------------------|---------------------------| 
E|-----|----------------------|---------------------------| 
                                  ~           ~~  
 |-------------------------|---------------------| 
 |-------------------------|---------------6--88-| 
 |---3---3--3--------------|-------3---35/7------| 
 |-35-5---55---------------|--35--5-5------------| 
 |-------------5(0)43---3--|---------------------| 
 |---------------------6-6-|-3-------------------| 
        elevens not ones 
                       ~~~~    tens not ones and zeros 
 |----------------------.---|-----------------------------| 
 |-88-/-11----11----1111----|-8--8--118----8--------------| 
 |--------------------------|--10------10-----710--7--7---| 
 |--------------------------|---------------10------10-10-| 
 |--------------------------|-----------------------------| 
 |--------------------------|-----------------------------| 
 
 |------------------------------|   |-----------|   |---------------------| 
 |------------------------------|   |-----------|   |---------------------| 
 |------------------------------|   |-----------|   |---------------------| 
 |-8108----8--------------------|2/4|-----------|4/4|---------------------| 
 |----------108----8--8---------|   |-----------|   |----------1---1------| 
 |-----10------10---10-10--9898-|   |-6863--631-|   |-1333--133---3---133-| 
  
 |---------------------|-----------------------| 
 |---------------------|-----------------------| 
 |---------------------|-----------------------| 
 |---------------------|---------------3---355-| 
 |----------3---1------|----------3-/-5-3------| 
 |-1331--333---3---133-|-1331--313-------------| 
   ..  . .  .. P.H.               >      Fifteen not one and five 
 |-----------------|--------------------|-------------| 
 |-----------------|--------------------|-------------| 
 |-33--3-3--33-3x--|-33--3--------3/7\3-|-------------| 
 |------x----------|------33--55--------|-5-----------| 
 |-----------------|--------------------|------/15\---| 
 |-----------------|--------------------|------/15\---| 
 
 
 

	  

Full key step upFull key step up
Half key step upHalf key step up
Half key step downHalf key step down
Full key step downFull key step down
Search Paypal
auto scroll beats size up size down change color hide chords drawings
tab show chords e-chords YouTube Clip e-chords hide all tabs e-chords go to top tab