Red Hot Chili Peppers

purple stain (ver.2) Tab

Red Hot Chili Peppers

Difficulty: AdvancedAdvanced

by mneto

tuner correct add songbook print version text version save to e-mail
chordsukulelecavacokeyboardtabbassdrumsharmonicsflute Guitar Pro
close

there isn't a video lesson for this song

request
chords

purple stain (ver.2)

  		Intro:                          |Verse: 
                  *(chad enters)  |     #(anthony enters) 
                                  | 
e:JOHN---------------------------------------------------------| 
B:-------------------------------------------------------------| 
G:-------------------------------------------------------------| 
D:----------5-5---5-5----------------------5-5---5-5-----------| 
A:-------------------------------------------------------------| 
E:---12\(0)------------------------12\(0)----------------------| 
                      *        # 
G:FLEA---------------------------------------------------------| 
D:-------------------------------------------------------------| 
A:-------------------------------------------------------------| 
E:------------------------------0---------12\(0)-------0-0-----| 
 
                               To finger paint is not a sin... 
 
e:----------------------------------------------------------| 
B:----------------------------------------------------------| 
G:----------------------------------------------------------| 
D:-----------------------5-5---5-5--------------------------| 
A:----------------------------------------------------------| 
E:----------------12\(0)------------------------------------| 
 
G:----------------------------------------------------------| 
D:----------------------------------------------------------| 
A:----7\--------------------------------------7\------------| 
E:--0----0--3~--0--------12\(0)---0-0-------0------0-2-3-0--| 
 
 
 
                                                         
e:------------------------------------------------------| 
B:------------------------------------------------------| 
G:------------------------------------------------------| 
D:-----------5-5---5-5----------------------------------| 
A:------------------------------------------------------| 
E:---12\(0)---------------------------------------------| 
 
G:------------------------------------------------------| 
D:------------------------------------------------------| 
A:------------------------------------------------------| 
E:----------12\(0)-------0-0-------0-10~-9~-7~--(3)--0--| 
 
    Python power... 
 
 
 
e:---------------------------------------| 
B:---------------------------------------| 
G:---------------------------------------| 
D:-----------5-5---5-5-------------------| 
A:---------------------------------------| 
E:---12\(0)------------------------------| 
 
G:---------------------------------------| 
D:---------------------------------------| 
A:------------------------------7\-------| 
E:---------12\(0)------0-0----0----0-3---| 
 
                 ...and I'm the patient 
 
 
     Pre Chorus: 
 
e:-------------------------------|------------------------------| 
B:-------------------------------|------------------------------| 
G:-------------------------------|------------------------------| 
D:-------5--7--7-------5--7--7---|------5--7--7-------5--7--7---| 
A:----7-------------7------------|---7-------------7------------| 
E:-------------------------------|------------------------------| 
 
G:-------------------------------|------------------------------| 
D:-------5--7--7-------5--7--7---|------5--7--7-------5--7--7---| 
A:----7-------------7------------|---7-------------7------------| 
E:-------------------------------|------------------------------| 
 
 
     Chorus: x2 
 
 
e:------------8--8------------8--8--|------------8--8-----------------| 
B:------------8--8------------8--8--|------------8--8-----------------| 
G:----------------------------------|---------------------5-----------| 
D:------5--7------------5--7--------|------5--7--------------7--5-----| 
A:---7---------------7--------------|---7-----------------------------| 
E:----------------------------------|---------------------------------| 
 
G:----------------------------------|---------------------5-----------| 
D:------5--7--7---------5--7--7-----|------5--7--7-----------7--5--5--| 
A:---7---------------7--------------|---7-----------------------------| 
E:----------------------------------|---------------------------------| 
                                                                 x2 
     Black and white, a red and blue... 
 
 
e:-----------------------------------| 
B:----------------8\-----------------| 
G:----------------7\-----------------| 
D:---5------------6\------------5----| 
A:-----7-7-7-5-7--7\----5-7-7-7---7-7| 
E:-----------------------------------| 
 
e:-----------------------------------| 
B:-----------------------------------| 
G:-----------------------------------| 
D:-----------------------------------| 
A:-----------------------------------| 
E:---0-0-----------------------------| 
 
 
 

	  

Search Paypal
auto scroll beats size up size down change color hide chords drawings
tab show chords e-chords YouTube Clip e-chords hide all tabs e-chords go to top tab

share with facebook