Red Hot Chili Peppers

home > Red Hot Chili Pepp...

Monarchy Of Roses Tab

Red Hot Chili Peppers

Difficulty: BeginnerBeginner

by hebealmeida

tuner correct add songbook print version text version save to e-mail
chordsukulelecavacokeyboardtabbassdrumsharmonicsflute Guitar Pro
chords

Monarchy Of Roses

  		
Intro/Verses: 

e|-----------------------------| 
B|-----------------------------| 
G|-----------------------------| 
D|-----------------------------| 
A|-2-6-9-8/--2-6-9-8-----------| 
E|-0-4-7-6/--0-4-7-6-----------| 


Chorus: 

e|--3--7--3--7--5--2--5--2----------| 
B|--5--8--5--7--7--3--7--3----------| 
G|--5--9--5--8--7--4--7--4----------| 
D|--5--9--5--9--7--4--7--4----------| 
A|--3--7--3--7--5--2--5--2----------| 
E|----------------------------------| 


e|----12----12---12--12---12--12----------| 
B|----------------------------------------| 
G|-13----13----14--14---13--13----/18-----| 
D|----------------------------------------| 
A|----------------------------------------| 
E|----------------------------------------| 

Outro: 

e|-3--5--3--6-----| 
B|-3--5--5--8-----| 
G|-4--6--5--8-----| 
D|-5--7--5--8-----| 
A|-5--7--3--6-----| 
E|-3--5-----------| 

End on G 
	  

Search Paypal
auto scroll beats size up size down change color hide chords drawings
tab show chords e-chords YouTube Clip e-chords hide all tabs e-chords go to top tab