Red Hot Chili Peppers

home > Red Hot Chili Pepp...

Make you feel better Tab

Red Hot Chili Peppers

Difficulty: IntermediateIntermediate

by europeu

tuner correct add songbook print version text version save to e-mail
chordsukulelecavacokeyboardtabbassdrumsharmonicsflute Guitar Pro
chords

Make you feel better

Year: 2006 - Album: Stadium Arcadium

  		Played in bar chords 
 
Verse: 
E minor B minor C major G major 
 
Chorus: 
G major D major E minor C major 
 
 
Solo: 
 
e -----14-15-/-17b19rb17-----| 
B -15--------/---------------| 
G -----------/---------------| 
D -----------/---------------| 
A -----------/---------------| 
E -----------/---------------| 
 
e ----14--15-/-----------------| 
B -15--------/---15b17 b17 b17-| 
G -----------/-----------------| 
D -----------/-----------------| 
A -----------/-----------------| 
E -----------/-----------------| 
 
 
e -----14-15-/-17b19rb17-----| 
B -15--------/---------------| 
G -----------/---------------| 
D -----------/---------------| 
A -----------/---------------| 
E -----------/---------------| 
 
 
e -----------/------------/---------------------/-------------17-/ 
B -15--13-12-/-12h13p12---/---------------------/----------------/ 
G -----------/---------12-/-14b16rb14--14b16rb14/-12-------------/ 
D -----------/------------/---------------------/----------------/ 
A -----------/------------/---------------------/----------------/ 
E -----------/------------/---------------------/----------------/ 

	  

Full key step upFull key step up
Half key step upHalf key step up
Half key step downHalf key step down
Full key step downFull key step down
Search Paypal
auto scroll beats size up size down change color hide chords drawings
tab show chords e-chords YouTube Clip e-chords hide all tabs e-chords go to top tab