Red Hot Chili Peppers

home > Red Hot Chili Pepp...

Live at slane Tab

Red Hot Chili Peppers

Difficulty: ExpertExpert

tuner correct add songbook print version text version save to e-mail
chordsukulelecavacokeyboardtabbassdrumsharmonicsflute Guitar Pro
chords

Live at slane

  		 
Introdução de Live at Slane :  
 
 
E|-------------------------------------------------------------------------|  
A|-------------------------------------------------------------------------| 
D|-------------------------------------------------------------------------| 
G|-------------------------------------------------------------------------|  
B|-----------------------13-----------------10-10~-------------------------|  
E|-10~-10-10-12-13-13-13p10--10~-10-10-10-10p8------10~-10-10-12-13--------| 
 
E|-------------------------------------------------------------------------|  
A|-------------------------------------------------------------------------| 
D|-------------------------------------------------------------------------| 
G|-------------------------------------------------------------------------|   
B|----------13~------------------10-10~------------------------------------|  
E|-13^-13-10---10~-10~-10-10-10p8?-8---10~-10-10-12-13-13-13p10------------|  
 
E|-------------------------------------------------------------------------|  
A|-------------------------------------------------------------------------| 
D|-------------------------------------------------------------------------| 
G|-------------------------------------------------------------------------|   
B|-13~----------------10-10~---------------------------13-15~-15~----------|  
E|---10~-10-10-10-10p8-----10~-10-10-10-10-12-13^-13-10--------------------|  
 
 
E|-------------------------------------------------------------------------|  
A|-------------------------------------------------------------------------| 
D|-------------------------------------------------------------------------|  
G|------14-----14-----14-----14--------------------------------------------|  
B|-15-13?-15-13?-15-13?-15-13----------------------------------------------|  
E|------------------------------15^~-15^~-15-13-12-15-13-12-13-------------|  
 
E|-------------------------------------------------------------------------|  
A|-------------------------------------------------------------------------| 
D|-------------------------------------------------------------------------| 
G|-------------------------------------------------------------------------| 
B|-------------------------------------------------------------------------| 
E|-15^~-15-15-13-12-13~-13-15^-15-15-13-12-13~-13-13^-13^-13~-15^-15-15----|  
 
E|-------------------------------------------------------------------------|  
A|-------------------------------------------------------------------------| 
D|-------------------------------------------------------------------------| 
G|-------------------------------------------------------------------------| 
B|-------------20^-20-18-17-18~-18-20^--20-18-17-17~-17-19^18--------------|  
E|-13-12-13~-13?-20-------------------20-----------------------------------|  
 
E|-------------------------------------------------------------------------|  
A|-------------------------------------------------------------------------| 
D|-------------------------------------------------------------------------| 
G|-------------------------------------------------------------------------|   
B|-19^18-19^18-19^18-17^15 17^15-17^15-17^15-17^15-17^15-17^15-17^15-17^15-|  
E|-------------------------------------------------------------------------|  
 
E|-------------------------------------------------------------------------|  
A|-------------------------------------------------------------------------| 
D|-------------------------------------------------------------------------| 
G|--------------------------------------------------------15-14------------|  
B|-17^15-17^15-17^15-17^15-17^15-17^15-15p-13-13-13~-13-13-----20^-18-20^--|  
E|-------------------------------------------------------------------------|   
 
E|-------------------------------------------------------------------------|  
A|-------------------------------------------------------------------------| 
D|-------------------------------------------------------------------------| 
G|-------------------------------------------------------------------------|    
B|-18-20^-18-20^-18-20^-18-20^-18-20^-18-20^-18-20^-18-20^-18-20^--20^-----|  
E|---------------------------------------------------------------20--------|  
 
E|-------------------------------------------------------------------------|  
A|-------------------------------------------------------------------------| 
D|-------------------------------------------------------------------------| 
G|-------------------------------------------------------------------------|    
B|---20^--------------------------17?-17?-18-20?----20?-20-----------------|  
E|-20?20-20^-20^-20-20^-20^-17-20^--20?-20-----17-20?-17-------------------|  
 
E|-------------------------------------------------------------------------|  
A|-------------------------------------------------------------------------| 
D|-------------------------------------------------------------------------| 
G|-------------------------------------------------------------------------19~~-|   
B|--20-18-20?-20-18-20-20p18p17-20p18p17-20p18p17-20p18p17-20p18p17-20p18p17----|  
E|17--------17-------------------------------------------------------------|  
 
 
Eu acho que está 100% certo , mas se você acha que não , assista o 
 DVD e então corrija . 
 
_______________________________________________________ 
Contribuição: Ricardo Cabral Penteado([email protected]) 

	  

Search Paypal
auto scroll beats size up size down change color hide chords drawings
tab show chords e-chords YouTube Clip e-chords hide all tabs e-chords go to top tab