Red Hot Chili Peppers

home > Red Hot Chili Pepp...

Felas Cock Tab

Red Hot Chili Peppers

Difficulty: nolevelnolevel

by terr%5Fschmitz

tuner correct add songbook print version text version save to e-mail
chordsukulelecavacokeyboardtabbassdrumsharmonicsflute Guitar Pro
chords

Felas Cock

  		Fig.1 
                                           End 
E-|---------------------------------------|------------------------------------| 
B-|---------------------------------------|------------------------------------| 
G-|--*---------------------------------*--|------------------------------------| 
D-|--*---------------------------------*--|------------------------------------| 
A-|----10--10--10--10--10--10--10--10-----|--10--10--10--10--10--10--10--10----| 
E-|---------------------------------------|------------------------------------| 
       |P.M.-------------------------------------------------------------------| 

Fig. 2 

E-|--17-15--------------------------------------|--17-15----------------------------18-18---| 
B-|--17-15-x-x-15-x-x-17-x-x-15-x-x--17---------|--17-15-x-x-15-x-x-17-x-x-15--x-x--18-18---| 
G-|--15-15-x-x-15-x-x-17-x-x-15-x-x--17---------|--15-15-x-x-15-x-x-17-x-x-15--x-x----------| 
D-|------------15-x-x-17-x-x-15-x-x--17--x------|--------x-x-15-x-x-17-x-x-15--x-x----------| 
A-|--------------------------------------x------|-------------------------------------------| 
E-|-----------------------------------------15--|-------------------------------------------| 

E-|--17-15--------------------------------------|--17-15-------------------------------------| 
B-|--17-15-x-x-15-x-x-17-x-x-15-x-x--17---------|--17-15-x-x-15-x-x-17-x-x-15--x-x-x-x-x-x---| 
G-|--15-15-x-x-15-x-x-17-x-x-15-x-x--17---------|--15-15-x-x-15-x-x-17-x-x-15--x-x-x-x-x-x---| 
D-|------------15-x-x-17-x-x-15-x-x--17--x------|--------x-x-15-x-x-17-x-x-15--x-x-x-x-x-x---| 
A-|--------------------------------------x------|--------------------------------------------| 
E-|-----------------------------------------15--|--------------------------------------------| x2 


Fig. 3                                   End 

       G9         F9        C9                    G9 
E-|----10----|----8----|----3----|----15----|----10-----------| 
B-|----10----|----8----|----3----|----15----|----10-----------| 
G-|----10----|----8----|----3----|----15----|----10-----------| 
D-|-----9----|----7----|----2----|-----------|-----9-----------| 
A-|----10----|----8----|----3----|-----------|----10-----------| 
E-|----------|---------|---------|-----------|-----------------| 




E-|-------------------------------------| 
B-|---------8-------8----11--8----------| 
G-|----10b-----10b--------------10b-----| 
D-|-------------------------------------| 
A-|-------------------------------------| 
E-|-------------------------------------| 



G-|-----------------------------|------------------------------| 
D-|--5----3-3-3-3---------------|--5----3-3-3-3----------------| 
A-|----------------5-5-5-3------|----------------5-5-5-3-------| 
E-|------------------------5-3--|------------------------5-3---| 



G-|-------------------------------|--------------------------------| 
D-|--5----3-3-3-3-----------------|--5----3-3-3-3------------------| 
A-|----------------5-5-5-3-(0)----|----------------5-5-5-3-(0)-----| 
E-|----------------------------3--|----------------------------3---| 

This for Fig. 3 

       G         F         C 
G-|---------|---------|---------|----5-----| 
D-|----5----|----3----|---------|----------| 
A-|---------|---------|----3----|----------| 
E-|---------|---------|---------|----------| 
	  

Full key step upFull key step up
Half key step upHalf key step up
Half key step downHalf key step down
Full key step downFull key step down
Search Paypal
auto scroll beats size up size down change color hide chords drawings
tab show chords e-chords YouTube Clip e-chords hide all tabs e-chords go to top tab