Rainbows Are Free

Slow Train

Rainbows Are Free

tabs

by  VICTBORGES

save to print version add songbook text version e-mail correct tuner
chordsukulelecavacokeyboardtabbassdrumsharmonicaflute Guitar Pro
close

there isn't a video lesson for this song

chords

Slow Train

	  		


Intro (0:00) 

e|------------------------------------------------------------------------------------------------------------| 
B|------------------------------------------------------------------------------------------------------------| 
G|------------------------------------------------------------------------------------------------------------| 
D|----------------2---------2-4p2------------4-4-4--7-7-7----------------2---------2-4p2---2-------4-4-4--7-77| 
A|-h4-4-4-2-4-2-4---4-4-2-4-------4-4--4-2-4-4-4-4--7-7-7--4-4-4-2-4-2-4---4--4-2-4------4---4-2-4-4-4-4--7-77| 
E|-------------------------------------------2-2-2--5-5-5------------------------------------------2-2-2--5-55| 

Riff 1 (0:17) 

e|-------------------------------------------------------| 
B|-------------------------------------------------------| 
G|-------------------------------------------------------| 
D|--------4p2-4p2-------------------4p2---2--------------| 
A|-4--2h4---------------2h4---4-2h4-----4---4-2----------| 
E|----------------2h3h4----------------------------------| 

Riff 2  ((0:43)                      Riff 3 (0:46) 

e|----------------------|----------------------------------------------------------------| 
B|----------------------|--------------------------------------------------------3-------| 
G|----------------------|-------------------------2-------------------------2-------4----| 
D|--------6-6-6--4-4-4--|-4-4-4-4-4-4---------2-----4--4-4-4-4-4-4-4--2h3h4----4---------| 
A|-4-2h4--6-6-6--4-4-4--|-4-4-4-4-4-4---2h3h4---4------4-4-4-4-4-4-4---------------------| 
E|--------4-4-4--2-2-2--|-2-2-2-2-2-2------------------2-2-2-2-2-2-2---------------------| 

Riff 4 (1:42) 

e|--------------------------------------| 
B|--------------------------------------| 
G|--------------------11b---------------| 
D|--------------9-9-9-----11------------| 
A|--11-11--9-9--------------------------| 
E|--------------------------------------| 

Riff 5 (2:01)                    Riff 5.1 

e|---------------------|----------------------------------------| 
B|---------------------|----------------------------------------| 
G|---------------------|--------------------9-9-9--11b----------| 
D|-11-9-11b~~p9-9-11---|-11-9-11b~~p9-9-11-------------11-------| 
A|---------------------|----------------------------------------| 
E|---------------------|----------------------------------------| 

Riff 6 (2:44) 

e|-----------------------------| 
B|-----------------------------| 
G|-----------------------------| 
D|-4-4-4-4-4-4--6-6--4-4-4-----| 
A|-4-4-4-4-4-4--6-6--4-4-4-----| 
E|-2-2-2-2-2-2--4-4--2-2-2-----| 


Riff order: 

Intro   
Riff 1 : x4 
Riff 2  
Riff 3 : x1+1/2 
Riff 4    
Riff 1 : x4 
Riff 3 : x1+1/2 
Intro 
Riff 5 : x2 
Riff 5.1 
Riff 6 : until the end of the song 




************************************ 

| /   slide up 
| \   slide down 
| h   hammer-on 
| p   pull-off 
| ~   vibrato 
| +   harmonic 
| x   Mute note 
| b   Bend 
| pb  Pre-bend 
| br  Bend release 
| pbr Pre-bend release 
| brb Bend release bend 

************************************ 
		  

auto scroll beats size up size down change color hide chords drawings
tab show chords e-chords YouTube Clip e-chords hide all tabs e-chords go to top tab

share