Pop Evil

Ghost Of Muskegon

Pop Evil

tabs

by  LUCICAMARGO

save to print version add songbook text version e-mail correct tuner
chordsukulelecavacokeyboardtabbassdrumsharmonicaflute Guitar Pro
close

there isn't a video lesson for this song

chords

Ghost Of Muskegon

	  		
Tuning Drop D
 
Guitar I: Clean w/ a modulating effect 
Guitar II: Overdrive 

Intro 

Guitar I 
e|---------------------------------10-------------11----11-10----10----10-------10----| 
B|---11--------------------11------------------------11-------11----11----11-10----10-| 
G|-------12--------------------12-----------------------------------------------------| 
D|-----------12-----------------------------------------------------------------------| 
A|------------------------------------------------------------------------------------| 
D|------------------------------------------------------------------------------------| 

Guitar II 
e|------------------------------------------------------------------------------------| 
B|------------------------------------------------------------------------------------| 
G|------------------------------------------------------------------------------------| 
D|------------------------------------------------------------------------------------| 
A|------------------------------------------------------------------------------------| 
D|------------------------------------------------------------------------------------| 

Guitar I 
e|---------------------------------10-------------11----11-10----10----10-------10----| 
B|---11--------------------11------------------------11-------11----11----11-10----10-| 
G|-------12--------------------12-----------------------------------------------------| 
D|-----------12-----------------------------------------------------------------------| 
A|------------------------------------------------------------------------------------| 
D|------------------------------------------------------------------------------------| 

Guitar II 
e|------------------------------------------------------------------------------------| 
B|------------------------------------------------------------------------------------| 
G|------------------------------------------------------------------------------------| 
D|------------------------------------------------------------------------------------| 
A|--------------/5--1-----------------------5-----6-----6--5-----5-----5--------5-----| 
D|-/5------------------5--0------------5h8-----8-----8--------8-----8-----8--7-----7--| 


Verse 

Guitar I 
e|---------------------------------10-------------11----11-10----10----10-------10----| 
B|---11--------------------11------------------------11-------11----11----11-10----10-| 
G|-------12--------------------12-----------------------------------------------------| 
D|-----------12-----------------------------------------------------------------------| 
A|------------------------------------------------------------------------------------| 
D|------------------------------------------------------------------------------------| 

Guitar II 
e|------------------------------------------------------------------------------------| 
B|------------------------------------------------------------------------------------| 
G|------------------------------------------------------------------------------------| 
D|------------------------------------------------------------------------------------| 
A|--------------/5--1-----------------------5-----6-----6--5-----5-----5--------5-----| 
D|-/5------------------5--0------------5h8-----8-----8--------8-----8-----8--7-----7--| 

Guitar I 
e|---------------------------------10-------------11----11-10----10----10-------10----| 
B|---11--------------------11------------------------11-------11----11----11-10----10-| 
G|-------12--------------------12-----------------------------------------------------| 
D|-----------12-----------------------------------------------------------------------| 
A|------------------------------------------------------------------------------------| 
D|------------------------------------------------------------------------------------| 

Guitar II 
e|------------------------------------------------------------------------------------| 
B|------------------------------------------------------------------------------------| 
G|------------------------------------------------------------------------------------| 
D|------------------------------------------------------------------------------------| 
A|--------------/5--1-----------------------5-----6-----6--5-----5-----5--------5-----| 
D|-/5------------------5--0------------5h8-----8-----8--------8-----8-----8--7-----7--| 

Guitar I 
e|---------------------------------10-------------11----11-10----10----10-------10----| 
B|---11--------------------11------------------------11-------11----11----11-10----10-| 
G|-------12--------------------12-----------------------------------------------------| 
D|-----------12-----------------------------------------------------------------------| 
A|------------------------------------------------------------------------------------| 
D|------------------------------------------------------------------------------------| 

Guitar II 
e|------------------------------------------------------------------------------------| 
B|------------------------------------------------------------------------------------| 
G|------------------------------------------------------------------------------------| 
D|------------------------------------------------------------------------------------| 
A|--------------/5--1-----------------------5-----6-----6--5-----5-----5--------5-----| 
D|-/5------------------5--0------------5h8-----8-----8--------8-----8-----8--7-----7--| 

Guitar I 
e|---------------------------------10-------------11----11-10----10----10-------10----| 
B|---11--------------------11------------------------11-------11----11----11-10----10-| 
G|-------12--------------------12-----------------------------------------------------| 
D|-----------12-----------------------------------------------------------------------| 
A|------------------------------------------------------------------------------------| 
D|------------------------------------------------------------------------------------| 

Guitar II 
e|------------------------------------------------------------------------------------| 
B|------------------------------------------------------------------------------------| 
G|------------------------------------------------------------------------------------| 
D|------------------------------------------------------------------------------------| 
A|--------------/5--1-----------------------5-----6-----6--5-----5-----5--------5-----| 
D|-/5------------------5--0------------5h8-----8-----8--------8-----8-----8--7-----7--| 

Chorus 

Guitar I 
e|--------------------------------------------------------------------------------------------------| 
B|--------------------------------------------------------------------------------------------------| 
G|--------------------------------------------------------------------------------------------------| 
D|--------------------------------------------------------------------------------------------------| 
A|--------------------------------------------------------------------------------------------------| 
D|--------------------------------------------------------------------------------------------------| 

Guitar II 
e|--------------------------------------------------------------------------------------------------| 
B|--------------------------------------------------------------------------------------------------| 
G|--------------------------------------------------------------------------------------------------| 
D|--1--1--1--1--1--1--1--1--5--5--5--5--5--5--5--5--5--5--5--5--5--5--5--5--3--3--3--3--3--3--3--3--| 
A|--1--1--1--1--1--1--1--1--3--3--3--3--3--3--3--3--5--5--5--5--5--5--5--5--3--3--3--3--3--3--3--3--| 
D|--1--1--1--1--1--1--1--1--3--3--3--3--3--3--3--3--5--5--5--5--5--5--5--5--3--3--3--3--3--3--3--3--| 

Guitar I 
e|--------------------------------------------------------------------------------------------------| 
B|--------------------------------------------------------------------------------------------------| 
G|--------------------------------------------------------------------------------------------------| 
D|--------------------------------------------------------------------------------------------------| 
A|--------------------------------------------------------------------------------------------------| 
D|--------------------------------------------------------------------------------------------------| 

Guitar II 
e|--------------------------------------------------------------------------------------------------| 
B|--------------------------------------------------------------------------------------------------| 
G|--------------------------------------------------------------------------------------------------| 
D|--1--1--1--1--1--1--1--1--5--5--5--5--5--5--5--5--5--5--5--5--5--5--5--5--3--3--3--3--3--3--3--3--| 
A|--1--1--1--1--1--1--1--1--3--3--3--3--3--3--3--3--5--5--5--5--5--5--5--5--3--3--3--3--3--3--3--3--| 
D|--1--1--1--1--1--1--1--1--3--3--3--3--3--3--3--3--5--5--5--5--5--5--5--5--3--3--3--3--3--3--3--3--| 

Guitar I 
e|--------------------------------------------------| 
B|--------------------------------------------------| 
G|--------------------------------------------------| 
D|--------------------------------------------------| 
A|--------------------------------------------------| 
D|--------------------------------------------------| 

Guitar II 
e|--------------------------------------------------| 
B|--------------------------------------------------| 
G|--------------------------------------------------| 
D|--1--1--1--1--1--1--1--1--5--5--5--5--5--5--5--5--| 
A|--1--1--1--1--1--1--1--1--3--3--3--3--3--3--3--3--| 
D|--1--1--1--1--1--1--1--1--3--3--3--3--3--3--3--3--| 


Verse 

Guitar I 
e|---------------------------------10-------------11----11-10----10----10-------10----| 
B|---11--------------------11------------------------11-------11----11----11-10----10-| 
G|-------12--------------------12-----------------------------------------------------| 
D|-----------12-----------------------------------------------------------------------| 
A|------------------------------------------------------------------------------------| 
D|------------------------------------------------------------------------------------| 

Guitar II 
e|------------------------------------------------------------------------------------| 
B|------------------------------------------------------------------------------------| 
G|------------------------------------------------------------------------------------| 
D|------------------------------------------------------------------------------------| 
A|--------------/5--1-----------------------5-----6-----6--5-----5-----5--------5-----| 
D|-/5------------------5--0------------5h8-----8-----8--------8-----8-----8--7-----7--| 

Guitar I 
e|---------------------------------10-------------11----11-10----10----10-------10----| 
B|---11--------------------11------------------------11-------11----11----11-10----10-| 
G|-------12--------------------12-----------------------------------------------------| 
D|-----------12-----------------------------------------------------------------------| 
A|------------------------------------------------------------------------------------| 
D|------------------------------------------------------------------------------------| 

Guitar II 
e|------------------------------------------------------------------------------------| 
B|------------------------------------------------------------------------------------| 
G|------------------------------------------------------------------------------------| 
D|------------------------------------------------------------------------------------| 
A|--------------/5--1-----------------------5-----6-----6--5-----5-----5--------5-----| 
D|-/5------------------5--0------------5h8-----8-----8--------8-----8-----8--7-----7--| 

Guitar I 
e|---------------------------------10-------------11----11-10----10----10-------10----| 
B|---11--------------------11------------------------11-------11----11----11-10----10-| 
G|-------12--------------------12-----------------------------------------------------| 
D|-----------12-----------------------------------------------------------------------| 
A|------------------------------------------------------------------------------------| 
D|------------------------------------------------------------------------------------| 

Guitar II 
e|------------------------------------------------------------------------------------| 
B|------------------------------------------------------------------------------------| 
G|------------------------------------------------------------------------------------| 
D|------------------------------------------------------------------------------------| 
A|--------------/5--1-----------------------5-----6-----6--5-----5-----5--------5-----| 
D|-/5------------------5--0------------5h8-----8-----8--------8-----8-----8--7-----7--| 

Guitar I 
e|---------------------------------10-------------11----11-10----10----10-------10----| 
B|---11--------------------11------------------------11-------11----11----11-10----10-| 
G|-------12--------------------12-----------------------------------------------------| 
D|-----------12-----------------------------------------------------------------------| 
A|------------------------------------------------------------------------------------| 
D|------------------------------------------------------------------------------------| 

Guitar II 
e|------------------------------------------------------------------------------------| 
B|------------------------------------------------------------------------------------| 
G|------------------------------------------------------------------------------------| 
D|------------------------------------------------------------------------------------| 
A|--------------/5--1-----------------------5-----6-----6--5-----5-----5--------5-----| 
D|-/5------------------5--0------------5h8-----8-----8--------8-----8-----8--7-----7--| 


Chorus 

Guitar I 
e|--------------------------------------------------------------------------------------------------| 
B|--------------------------------------------------------------------------------------------------| 
G|--------------------------------------------------------------------------------------------------| 
D|--------------------------------------------------------------------------------------------------| 
A|--------------------------------------------------------------------------------------------------| 
D|--------------------------------------------------------------------------------------------------| 

Guitar II 
e|--------------------------------------------------------------------------------------------------| 
B|--------------------------------------------------------------------------------------------------| 
G|--------------------------------------------------------------------------------------------------| 
D|--1--1--1--1--1--1--1--1--5--5--5--5--5--5--5--5--5--5--5--5--5--5--5--5--3--3--3--3--3--3--3--3--| 
A|--1--1--1--1--1--1--1--1--3--3--3--3--3--3--3--3--5--5--5--5--5--5--5--5--3--3--3--3--3--3--3--3--| 
D|--1--1--1--1--1--1--1--1--3--3--3--3--3--3--3--3--5--5--5--5--5--5--5--5--3--3--3--3--3--3--3--3--| 

Guitar I 
e|--------------------------------------------------------------------------------------------------| 
B|--------------------------------------------------------------------------------------------------| 
G|--------------------------------------------------------------------------------------------------| 
D|--------------------------------------------------------------------------------------------------| 
A|--------------------------------------------------------------------------------------------------| 
D|--------------------------------------------------------------------------------------------------| 

Guitar II 
e|--------------------------------------------------------------------------------------------------| 
B|--------------------------------------------------------------------------------------------------| 
G|--------------------------------------------------------------------------------------------------| 
D|--1--1--1--1--1--1--1--1--5--5--5--5--5--5--5--5--5--5--5--5--5--5--5--5--3--3--3--3--3--3--3--3--| 
A|--1--1--1--1--1--1--1--1--3--3--3--3--3--3--3--3--5--5--5--5--5--5--5--5--3--3--3--3--3--3--3--3--| 
D|--1--1--1--1--1--1--1--1--3--3--3--3--3--3--3--3--5--5--5--5--5--5--5--5--3--3--3--3--3--3--3--3--| 

Guitar I 
e|--------------------------------------------------| 
B|--------------------------------------------------| 
G|--------------------------------------------------| 
D|--------------------------------------------------| 
A|--------------------------------------------------| 
D|--------------------------------------------------| 

Guitar II 
e|--------------------------------------------------| 
B|--------------------------------------------------| 
G|--------------------------------------------------| 
D|--1--1--1--1--1--1--1--1--5--5--5--5--5--5--5--5--| 
A|--1--1--1--1--1--1--1--1--3--3--3--3--3--3--3--3--| 
D|--1--1--1--1--1--1--1--1--3--3--3--3--3--3--3--3--| 


Bridge 

Guitar I 
e|---------------------------------------------------------------------------------------------------------| 
B|---------------------------------------------------------------------------------------------------------| 
G|---------------------------------------------------------------------------------------------------------| 
D|---------------------------------------------------------------------------------------------------------| 
A|---------------------------------------------------------------------------------------------------------| 
D|---------------------------------------------------------------------------------------------------------| 

Guitar II 
e|---------------------------------------------------------------------------------------------------------| 
B|---------------------------------------------------------------------------------------------------------| 
G|---------------------------------------------------------------------------------------------------------| 
D|--5-----5/8--7-----7/10--8-----8/12--10-----10/12--5-----5/8--7-----7/10--8-----8/12------10------10/12--| 
A|---------------------------------------------------------------------------------------------------------| 
D|---------------------------------------------------------------------------------------------------------| 


Instrumental 

Guitar I 
e|--------------------------------------------------------------------------------------------------| 
B|--------------------------------------------------------------------------------------------------| 
G|--------------------------------------------------------------------------------------------------| 
D|--------------------------------------------------------------------------------------------------| 
A|--------------------------------------------------------------------------------------------------| 
D|--------------------------------------------------------------------------------------------------| 

Guitar II (CLEAN) 
e|--------------------------------------------------------------------------------------------------| 
B|--------------------------------------------------------------------------------------------------| 
G|--------0--------0--------------0--------0--------------0--------0--------------0--------0--------| 
D|-----1--------1--------------1--------1-----1--------------------------------3--------3-----3-----| 
A|--------------------------3--------3-----------3-----6--------6-----6-----------------------------| 
D|--1--------1--------1--0--------------------------5--------5-----------5--3--------3-----------3--| 

Guitar I 
e|--------------------------------------------------------------------------------------------------| 
B|--------------------------------------------------------------------------------------------------| 
G|--------------------------------------------------------------------------------------------------| 
D|--------------------------------------------------------------------------------------------------| 
A|--------------------------------------------------------------------------------------------------| 
D|--------------------------------------------------------------------------------------------------| 

Guitar II (CLEAN) 
e|--------------------------------------------------------------------------------------------------| 
B|--------------------------------------------------------------------------------------------------| 
G|--------0--------0--------------0--------0--------------0--------0--------------0--------0--------| 
D|-----1--------1--------------1--------1-----1--------------------------------3--------3-----3-----| 
A|--------------------------3--------3-----------3-----6--------6-----6-----------------------------| 
D|--1--------1--------1--0--------------------------5--------5-----------5--3--------3-----------3--| 


Chorus 

Guitar I 
e|--------------------------------------------------------------------------------------------------| 
B|--------------------------------------------------------------------------------------------------| 
G|--------------------------------------------------------------------------------------------------| 
D|--------------------------------------------------------------------------------------------------| 
A|--------------------------------------------------------------------------------------------------| 
D|--------------------------------------------------------------------------------------------------| 

Guitar II 
e|--------------------------------------------------------------------------------------------------| 
B|--------------------------------------------------------------------------------------------------| 
G|--------------------------------------------------------------------------------------------------| 
D|--1--1--1--1--1--1--1--1--5--5--5--5--5--5--5--5--5--5--5--5--5--5--5--5--3--3--3--3--3--3--3--3--| 
A|--1--1--1--1--1--1--1--1--3--3--3--3--3--3--3--3--5--5--5--5--5--5--5--5--3--3--3--3--3--3--3--3--| 
D|--1--1--1--1--1--1--1--1--3--3--3--3--3--3--3--3--5--5--5--5--5--5--5--5--3--3--3--3--3--3--3--3--| 


Guitar I 
e|--------------------------------------------------------------------------------------------------| 
B|--------------------------------------------------------------------------------------------------| 
G|--------------------------------------------------------------------------------------------------| 
D|--------------------------------------------------------------------------------------------------| 
A|--------------------------------------------------------------------------------------------------| 
D|--------------------------------------------------------------------------------------------------| 

Guitar II 
e|--------------------------------------------------------------------------------------------------| 
B|--------------------------------------------------------------------------------------------------| 
G|--------------------------------------------------------------------------------------------------| 
D|--1--1--1--1--1--1--1--1--5--5--5--5--5--5--5--5--5--5--5--5--5--5--5--5--3--3--3--3--3--3--3--3--| 
A|--1--1--1--1--1--1--1--1--3--3--3--3--3--3--3--3--5--5--5--5--5--5--5--5--3--3--3--3--3--3--3--3--| 
D|--1--1--1--1--1--1--1--1--3--3--3--3--3--3--3--3--5--5--5--5--5--5--5--5--3--3--3--3--3--3--3--3--| 

Guitar I 
e|--------------------------------------------------------------------------------------------------| 
B|--------------------------------------------------------------------------------------------------| 
G|--------------------------------------------------------------------------------------------------| 
D|--------------------------------------------------------------------------------------------------| 
A|--------------------------------------------------------------------------------------------------| 
D|--------------------------------------------------------------------------------------------------| 

Guitar II 
e|--------------------------------------------------------------------------------------------------| 
B|--------------------------------------------------------------------------------------------------| 
G|--------------------------------------------------------------------------------------------------| 
D|--1--1--1--1--1--1--1--1--5--5--5--5--5--5--5--5--5--5--5--5--5--5--5--5--3--3--3--3--3--3--3--3--| 
A|--1--1--1--1--1--1--1--1--3--3--3--3--3--3--3--3--5--5--5--5--5--5--5--5--3--3--3--3--3--3--3--3--| 
D|--1--1--1--1--1--1--1--1--3--3--3--3--3--3--3--3--5--5--5--5--5--5--5--5--3--3--3--3--3--3--3--3--| 

Guitar I 
e|--------------------------------------------------------------------------------------------------| 
B|--------------------------------------------------------------------------------------------------| 
G|--------------------------------------------------------------------------------------------------| 
D|--------------------------------------------------------------------------------------------------| 
A|--------------------------------------------------------------------------------------------------| 
D|--------------------------------------------------------------------------------------------------| 

Guitar II 
e|--------------------------------------------------------------------------------------------------| 
B|--------------------------------------------------------------------------------------------------| 
G|--------------------------------------------------------------------------------------------------| 
D|--1--1--1--1--1--1--1--1--5--5--5--5--5--5--5--5--5--5--5--5--5--5--5--5--3--3--3--3--3--3--3--3--| 
A|--1--1--1--1--1--1--1--1--3--3--3--3--3--3--3--3--5--5--5--5--5--5--5--5--3--3--3--3--3--3--3--3--| 
D|--1--1--1--1--1--1--1--1--3--3--3--3--3--3--3--3--5--5--5--5--5--5--5--5--3--3--3--3--3--3--3--3--| 


Guitar I 
e|--------------------------------------------------| 
B|--------------------------------------------------| 
G|--------------------------------------------------| 
D|--------------------------------------------------| 
A|--------------------------------------------------| 
D|--------------------------------------------------| 

Guitar II 
e|--------------------------------------------------| 
B|--------------------------------------------------| 
G|--------------------------------------------------| 
D|--1--1--1--1--1--1--1--1--5--5--5--5--5--5--5--5--| 
A|--1--1--1--1--1--1--1--1--3--3--3--3--3--3--3--3--| 
D|--1--1--1--1--1--1--1--1--3--3--3--3--3--3--3--3--| 

Outro 

Guitar I 
e|---------------------------------10-------------11----11-10----10----10-------10----| 
B|---11--------------------11------------------------11-------11----11----11-10----10-| 
G|-------12--------------------12-----------------------------------------------------| 
D|-----------12-----------------------------------------------------------------------| 
A|------------------------------------------------------------------------------------| 
D|------------------------------------------------------------------------------------| 

Guitar II 
e|------------------------------------------------------------------------------------| 
B|------------------------------------------------------------------------------------| 
G|------------------------------------------------------------------------------------| 
D|------------------------------------------------------------------------------------| 
A|--------------/5--1-----------------------5-----6-----6--5-----5-----5--------5-----| 
D|-/5------------------5--0------------5h8-----8-----8--------8-----8-----8--7-----7--| 
  
************************************ 

| h  Hammer-on 
| /  Slide up 

************************************ 
		  

auto scroll beats size up size down change color hide chords drawings
tab show chords e-chords YouTube Clip e-chords hide all tabs e-chords go to top tab

share