Poison

Bullet for my valentine

Poison

tabs

by  EUROPEU

save to print version add songbook text version e-mail correct tuner
chordsukulelecavacokeyboardtabbassdrumsharmonicaflute Guitar Pro
close

there isn't a video lesson for this song

chords

Bullet for my valentine

	  		Intro 
===== 
-------------------------------------------------| 
-------------------------------------------------| 
-------------------------------------------------| x3 
-------------------------------------------------| 
-5h8t12--5h8t12--5h8t12--5h8t12--5h8t13/t15------| 
-------------------------------------------------| 
 
--------------------------------------------| 
--------------------------------------------| 
--------------------------------------------| 
--------------------------------------------| 
-5h8t12--5h8t12--5h8-13-11-10-8-10-8-7------| 
--------------------------------------------| 
 
Verse 
===== 
-----------------------------------------------------| 
-----------------------------------------------------| 
-----------------------------------------------------| 
-8-88888--3-3--7-7--0-00-00-00--8-7-5-3-5-3-2--------| 
-8-88888--3-3--7-7--0-00-00-00-----------------------| 
-8-88888--3-3--7-7--0-00-00-00-----------------------| 
   xxxxx              xx xx xx 
---------------------------------------------| 
---------------------------------------------| 
---------------------------------------------| 
-3-3333-555-222--0-00-00-00--8-7-5-3-5-3-2---| 
-----------------0-00-00-00------------------| 
-----------------0-00-00-00------------------| 
                   xx xx xx 
-----------------------------------------------------| 
-----------------------------------------------------| 
-----------------------------------------------------| 
-8-88888--3-3--7-7--0-00-00-00--8-7-5-3-5-3-2--------| 
-8-88888--3-3--7-7--0-00-00-00-----------------------| 
-8-88888--3-3--7-7--0-00-00-00-----------------------| 
   xxxxx              xx xx xx 
--------------------------------------------| 
--------------------------------------------| 
--------------------------------------------| 
-3-3333-555-222-----------------------------| 
--------------------------------------------| 
--------------------------------------------| 
 
Intro 
 
Verse 2 
======= 
-----------------------------------------------------| 
-----------------------------------------------------| 
-----------------------------------------------------| 
-8-88888--3-3--7-7--0-00-00-00--8-7-5-3-5-3-2--------| 
-8-88888--3-3--7-7--0-00-00-00-----------------------| 
-8-88888--3-3--7-7--0-00-00-00-----------------------| 
   xxxxx              xx xx xx 
---------------------------------------------| 
---------------------------------------------| 
---------------------------------------------| 
-3-3333-555-222--0-00-00-00--8-7-5-3-5-3-2---| 
-----------------0-00-00-00------------------| 
-----------------0-00-00-00------------------| 
                   xx xx xx 
-----------------------------------------------------| 
-----------------------------------------------------| 
-----------------------------------------------------| 
-8-88888--3-3--7-7--0-00-00-00--8-7-5-3-5-3-2--------| 
-8-88888--3-3--7-7--0-00-00-00-----------------------| 
-8-88888--3-3--7-7--0-00-00-00-----------------------| 
   xxxxx              xx xx xx 
-----------------| 
-----------------| 
-----------------| 
-3-3333-555--0-0-| 
-------------0-0-| 
-------------0-0-| 
             x x 
 
Chorus 
====== 
------------------------| 
------------------------| 
------------------------| x2 
-0---8---3---8-8-7-7----| 
-0---8---3---8-8-7-7----| 
-0---8---3---8-8-7-7----| 
 
-----------------------------| 
-----------------------------| 
-----------------------------| 
-00-00-00-00--8-7-5-3-5-3-2--| 
-00-00-00-00-----------------| 
-00-00-00-00-----------------| 
  xx xx xx xx 
 
Verse 2 
 
Chorus 2 
======== 
------------------------| 
------------------------| 
------------------------| x2 
-0---8---3---8-8-7-7----| 
-0---8---3---8-8-7-7----| 
-0---8---3---8-8-7-7----| 
 
Bridge 1 
======== 
------------------------------------------------------------| 
------------------------------------------------------------| 
------------------------------------------------------------| 
-----2p0-3p2p0------3p0-2h3-------3p0-2p0-3p0---3p0-2h3p2-0-|  x2 
-0-0------------1-1-----------3-3---------------------------| 
-0-0--------------------------------------------------------| 
 
Pre-Solo 
======== 
-------------------------| 
-------------------------| 
-------------------------| 
-0-0-0-0--8-7-5-3-5-3-2--| 
-0-0-0-0-----------------| 
-0-0-0-0-----------------| 
 
Solo 
==== 
-------10--------8--------10--------12---------| 
-----------------------------------------------| 
-9-10-----9-10-----9-10-----9-10-----9-10------| 
-----------------------------------------------| 
-----------------------------------------------| 
-----------------------------------------------| 
 
-------------------------------------------------| 
-------------------------------------------------| 
-14p12p10h12p10p9h10p9p7h9p7p5h7p5p3h5p3h5h7~----| 
-------------------------------------------------| 
-------------------------------------------------| 
-------------------------------------------------| 
 
-13----------------| 
----15----15-------| 
-------14----14----| x4 
----------------15-| 
-------------------| 
-------------------| 
 
-13--------------------------------------------------| 
----15----13-------10-------8-------------------15*--| 
-------14----14-12----12-10----10-9--10-9-5-7--------| 
-----------------------------------------------------| 
-----------------------------------------------------| 
-----------------------------------------------------| 
 
----15-13-12-13-12-10-8-10-12-13-15-17--| 
-10-------------------------------------| 
----------------------------------------| 
----------------------------------------| 
----------------------------------------| 
----------------------------------------| 
 
-17-17-13-15-13--------------17-17-13-15-13----| 
----------------15-10-13-15-----------------15-| 
-----------------------------------------------| 
-----------------------------------------------| 
-----------------------------------------------| 
-----------------------------------------------| 
 
-10b-12b-13b-15b-| 
-----------------| 
-----------------| 
-----------------| 
-----------------| 
-----------------| 
 
-17-20-20p117p15--17-20-20p17p15--17-20-20p17p15--17-20-17-20-22--|b 
------------------------------------------------------------------| 
------------------------------------------------------------------| 
------------------------------------------------------------------| 
------------------------------------------------------------------| 
------------------------------------------------------------------| 
 
Break x2 
===== 
------------------    ------| 
------------------    -3333-| 
------------------    ------| 
-000000---0000000- x2 ------| 
-000000---0000000-    ------| 
-000000---0000000-    ------| 
 xxxxxx   xxxxxxx 
 
Bridge 2 x2 
======== 
---------------------------------------------------------------------------------| 
---------------------------------------------------------------------------------| 
---------------------------------------------------------------------------------| 
-0000-0-0000-0-00-0-0-111-1-1111-1-111-1-3333-3-3333-3-3/111-1--5-3------5-3-----| 
-0000-0-0000-0-00-0-0-111-1-1111-1-111-1-3333-3-3333-3-3/111-1------6-5------6-5-| 
-0000-0-0000-0-00-0-0-111-1-1111-1-111-1-3333-3-3333-3-3/111-1-------------------| 
 xxxx   xxxx   xx     xxx   xxxx   xxx   xxxx   xxxx     xxx    x x x x  x x x x 
 
Intro 
Chorus (Acoustic) 
====== 
----------------------| 
----------------------| 
----------------------| x2 
-0000--8888--3333-----| 
-0000--8888--3333-----| 
-0000--8888--3333-----| 
 
Chorus 2 
======== 
------------| 
------------| 
------------| 
-8-8--7-7---| 
-8-8--7-7---| 
-8-8--7-7---| 
 
------------------------| 
------------------------| 
------------------------| x2 
-0---8---3---8-8-7-7----| 
-0---8---3---8-8-7-7----| 
-0---8---3---8-8-7-7----| 
 
---------------------------------| 
---------------------------------| 
---------------------------------| 
-0---8---3----0---8---3---7------| 
-0---8---3----0---8---3---7------| 
-0---8---3----0---8---3---7------| 
 
Bridge 1 x4 
 
Outro 
===== 
------------------------------| 
------------------------------| 
------------------------------| 
--0-0-0-0--8-7-5-3-5-3-2-0----| 
--0-0-0-0---------------------| 
--0-0-0-0---------------------| 
  
  
 

		  

See also:

tabs Tenacious D - Her Gently tabs Trivium - Pull Harder On The Strings Of Your Martyr tabs Jesus Christ Superstar - Overture tabs Tenacious D - Its A Long Way To The Top tabs Tenacious D - One Note Song tabs Tenacious D - Wonderboy (ver. 1)
e-chords

Other versions:

tabs Poison - Bullet for my valentine
auto scroll beats size up size down change color hide chords drawings
tab show chords e-chords YouTube Clip e-chords hide all tabs e-chords go to top tab

share