Pink Floyd

home > Pink Floyd

Mother (Solo) Tab

Pink Floyd

Difficulty: ExpertExpert

by live4ever

tuner correct add songbook print version text version save to e-mail
chordsukulelecavacokeyboardtabbassdrumsharmonicsflute Guitar Pro
chords

Mother (Solo)

  		heres the solo to Mother, i've played it along to the song a million times and it sounds really accurate to me 
hope you like it 
 
b=bend 
p=pull-off 
/=slide 
 
 
E----------------------------------------------------------------------------------- 
B--------------------13----------------------------------------------------------- 
G-14b14b-12---------------------------------5-----5/4-------------------- 
D--------------------------14p13p14----------------------------------------- 
A-----------------------------------------------7------7--------5---------------- 
E----------------------------------------------------------------------------------- 
 
E----------------------------------------------------------------------------------- 
B------------------------------------------------------13------------------------- 
G----------------------------14b14b14b-12------------------------------- 
D------------------------------------------------------------14p13p14------ 
A--3p2p3----3b-------------------------------------------------------------- 
E---------------------------------------------------------------------------------- 
 
E------------------------------------- 
B---17b15--15b13---13p12-13p12----------------------- 
G--------------------------------------------------12 
D-------------------------------------------------------12 
A-------------------------------------------------------------15p14 
E------------------------------------------------------------------------15 

	  

Search Paypal
auto scroll beats size up size down change color hide chords drawings
tab show chords e-chords YouTube Clip e-chords hide all tabs e-chords go to top tab