Pink Floyd

home > Pink Floyd

Us and Them Tab

Pink Floyd

Difficulty: BeginnerBeginner

by galeto

tuner correct add songbook print version text version save to e-mail
chordsukulelecavacokeyboardtabbassdrumsharmonicsflute Guitar Pro
chords

Us and Them

Year: 1973 - Album: Dark Side Of The Moon

(Waters / Wright)

  		Tablatura para dedilhado da canção Us and Them  
de Dark Side of The Moon. 

Intro.: (Tocada junto com o solo de sax inicial e  
         em todos os versos). 
                
               
e|-5-|---------5-----------|---------5-----------| 
B|-5-|-----5-----5---5-----|-----5-----5---5-----| 
G|-7-|---7---7-----7-------|---7---7-----7-------| 
D|-0-|-0-------------------|-0-------------------| 
A|-x-|---------------------|---------------------| 
E|-x-|---------------------|---------------------| 

e|-7-|-----------7---------|---------7-----------| 
B|-7-|-------7-----7---7---|-----7-----7---7-----| 
G|-9-|---7h9---9-----9-----|---9---9-----9-------| 
D|-0-|-0-------------------|-0-------------------| 
A|-x-|---------------------|---------------------| 
E|-x-|---------------------|---------------------| 

e|-9-|------------9----------|------------9----------| 
B|-10|------10------10----10-|------10------10----10-| 
G|-10|---10----10------10----|---10----10------10----| 
D|-0-|-0---------------------|-0---------------------| 
A|-x-|-----------------------|-----------------------| 
E|-x-|-----------------------|-----------------------| 

e|-7-|---------7-------------|---------7---------| 
B|-8-|-----8-----8---8-------|-----8-----8---8---| 
G|-7-|---7---7-----7---------|---7---7-----7-----| 
D|-0-|-0---------------------|-0-----------------| 
A|-x-|-----------------------|-------------------| 
E|-x-|-----------------------|-------------------| 

Pré-Refrão: D|-0-----| 
            A|---4-2-| 

          Bm      D/G  C 
Refrão: e|-2-|---|-2-|-0-| 
        B|-3-|---|-3-|-1-| 
        G|-4-|---|-2-|-0-| 
        D|-4-|---|-x-|-2-| 
        A|-2-|-0-|-x-|-3-| 
        E|-2-|---|-3-|-3-| 
	  

Full key step upFull key step up
Half key step upHalf key step up
Half key step downHalf key step down
Full key step downFull key step down
Search Paypal
auto scroll beats size up size down change color hide chords drawings
tab show chords e-chords YouTube Clip e-chords hide all tabs e-chords go to top tab