Danzig

Mother (intro)

Danzig

tabs

by  125PROSHADOW

save to print version add songbook text version e-mail correct tuner
chordsukulelecavacokeyboardtabbassdrumsharmonicaflute Guitar Pro
close

there isn't a video lesson for this song

chords

Mother (intro)

	  		Here are two ways to play the intro, play whichever makes you 
feel comfortable. 

|--------------- 
|--------------- 
|--------------- 
|--9----5---7--9 
|--9----5---7--9 
|--7----3---5--7 
Play multiple times 


| 
| 
|--4--------2--4 
|--4----0---2--4 
|--2----2---0--2 
|-------3------- 
Play multiple times
		  

auto scroll beats size up size down change color hide chords drawings
tab show chords e-chords YouTube Clip e-chords hide all tabs e-chords go to top tab

share