Danzig

She Rides

Danzig

bass

by  AMAN_CLAUDINO

save to print version add songbook text version e-mail correct tuner
chordsukulelecavacokeyboardtabbassdrumsharmonicaflute Guitar Pro
close

there isn't a video lesson for this song

chords

She Rides

	  		Danzig - "She Rides" 
Standard Bass Tuning 



Intro 

   (0:19) 
G|--------------------|------------------|-------------------------|-------------------------| 
D|--------------------|------------------|-------------------------|-------------------------| 
A|--------------------|----------------5-|-7---7-7---7-7---7-7---5/|/7---7-7---7-7---7-7---5-| 
E|-0------------------|------------------|-------------------------|-------------------------| 

G|-------------------------|-------------------------| 
D|-------------------------|-------------------------| play 3x 
A|-7---7-7---7-7---7-7---5/|/7---7-7---7-7---7-7---5-| 
E|-------------------------|-------------------------| 


verse 1 

   (0:52 - 1:17)    
G|-------------------------|-------------------------| 
D|-------------------------|-------------------------| 
A|-7---7-7---7-7---7-7---5-|-7---7-7---7-7---7-7---5-| repeat throughout 
E|-------------------------|-------------------------| 



Chorus 
  
G|-------------------------|-------------------------| 
D|-------------------------|-------------------------| 
A|-------------------------|-----------------------5-| 
E|-5---5-5---5-5---5-5---3-|-5---5-5---5-5---5-5-----| 

G|-------------------------|-------------------------| 
D|-------------------------|-------------------------| 
A|-7---7-7---7-7---7-7---5-|-7---7-7---7-7---7-7-----| 
E|-------------------------|-------------------------| 

G|-------------------------|-------------------------|-------------------------| 
D|-------------------------|-------------------------|-------------------------| 
A|-----------------------5/|/7---7-7---7-7---7-7---5-|-7---7-7---7-7---7-7-----| 
E|-3-3-3-3-3-3-2-2-2-2-----|-------------------------|-------------------------| 

G|-------------------------|-------------------------|-------------------------| 
D|-------------------------|-------------------------|-------------------------| 
A|-----------------------5/|/7---7-7---7-7---7-7---5-|-7---7-7---7-7---7-7---5/| 
E|-3-3-3-3-3-3-2-2-2-2-----|-------------------------|-------------------------| 



verse 2 

   (1:51 - 2:03)    
G|-------------------------|-------------------------| 
D|-------------------------|-------------------------| 
A|-7---7-7---7-7---7-7---5-|-7---7-7---7-7---7-7---5-| play 2x 
E|-------------------------|-------------------------| 



Chorus 2 
  
G|-------------------------|-------------------------| 
D|-------------------------|-------------------------| 
A|-------------------------|-----------------------5-| 
E|-5---5-5---5-5---5-5---3-|-5---5-5---5-5---5-5-----| 

G|-------------------------|-------------------------| 
D|-------------------------|-------------------------| 
A|-7---7-7---7-7---7-7---5-|-7---7-7---7-7---7-7-----| 
E|-------------------------|-------------------------| 

G|-------------------------|-------------------------|-------------------------| 
D|-------------------------|-------------------------|-------------------------| 
A|-----------------------5/|/7---7-7---7-7---7-7---5-|-7---7-7---7-7---7-7-----| 
E|-3-3-3-3-3-3-2-2-2-2-----|-------------------------|-------------------------| 

G|-------------------------|-------------------------|-------------------------| 
D|-------------------------|-------------------------|-------------------------| 
A|-----------------------5/|/7---7-7---7-7---7-7---5-|-7---7-7---7-7---7-7---5/| 
E|-3-3-3-3-3-3-2-2-2-2-----|-------------------------|-------------------------| 



Bridge 
   
   
G|-------------------------|-------------------------|-------------------------| 
D|-------------------------|-------------------------|-------------------------| 
A|-------------------------|-------------------------|-------------------------| 
E|-5-5-5-5-5-5-5-5-5-5-5-5-|-4-4-4-4-4-4-4-4-4-4-4-4-|-3-3-3-3-3-3-3-3-3-3-3-3-| 

G|-------------------------|-------------------------|-------------------------| 
D|-------------------------|-------------------------|-------------------------| 
A|-5-5-5-5-5-5-5-5-5-5-5-5-|-------------------------|-------------------------| 
E|-------------------------|-5-5-5-5-5-5-5-5-5-5-5-5-|-4-4-4-4-4-4-4-4-4-4-4-4-| 

G|-------------------------|-------------------------| 
D|-------------------------|-------------------------| 
A|-------------------------|-------------------------| 
E|-3-3-3-3-3-3-3-3-3-3-3-3-|-1-hold-note-------------| 


PreVerse 

G|-------------------------|-------------------------| 
D|-------------------------|-------------------------| play 4x 
A|-7---7-7---7-7---7-7---5/|/7---7-7---7-7---7-7---5-| 
E|-------------------------|-------------------------| 


verse 3 

G|-------------------------|-------------------------| 
D|-------------------------|-------------------------| 
A|-7---7-7---7-7---7-7---5-|-7---7-7---7-7---7-7---5-| play 2x 
E|-------------------------|-------------------------| 



Chorus 3 
  
G|-------------------------|-------------------------| 
D|-------------------------|-------------------------| 
A|-------------------------|-----------------------5-| 
E|-5---5-5---5-5---5-5---3-|-5---5-5---5-5---5-5-----| 

G|-------------------------|-------------------------| 
D|-------------------------|-------------------------| 
A|-7---7-7---7-7---7-7---5-|-7---7-7---7-7---7-7-----| 
E|-------------------------|-------------------------| 

G|-------------------------|-------------------------|-------------------------| 
D|-------------------------|-------------------------|-------------------------| 
A|-----------------------5/|/7---7-7---7-7---7-7---5-|-7---7-7---7-7---7-7-----| 
E|-3-3-3-3-3-3-2-2-2-2-----|-------------------------|-------------------------| 

G|-------------------------|-------------------------|-------------------------| 
D|-------------------------|-------------------------|-------------------------| 
A|-----------------------5/|/7---7-7---7-7---7-7---5-|-7---7-7---7-7---7-7---5/| 
E|-3-3-3-3-3-3-2-2-2-2-----|-------------------------|-------------------------| 



Bridge 
   
   
G|-------------------------|-------------------------|-------------------------| 
D|-------------------------|-------------------------|-------------------------| 
A|-------------------------|-------------------------|-------------------------| 
E|-5-5-5-5-5-5-5-5-5-5-5-5-|-4-4-4-4-4-4-4-4-4-4-4-4-|-3-3-3-3-3-3-3-3-3-3-3-3-| 

G|-------------------------|-------------------------|-------------------------| 
D|-------------------------|-------------------------|-------------------------| 
A|-5-5-5-5-5-5-5-5-5-5-5-5-|-------------------------|-------------------------| 
E|-------------------------|-5-5-5-5-5-5-5-5-5-5-5-5-|-4-4-4-4-4-4-4-4-4-4-4-4-| 

G|-------------------------|-------------------------| 
D|-------------------------|-------------------------| 
A|-------------------------|-------------------------| 
E|-3-3-3-3-3-3-3-3-3-3-3-3-|-1-1-1-1-1-1-1-1-1-1-1-1-| 



Ending Bridge   

G|-------------------------|-------------------------|-------------------------| 
D|-------------------------|-------------------------|-------------------------| 
A|-------------------------|-------------------------|-------------------------| 
E|-5-5-5-5-5-5-5-5-5-5-5-5-|-4-4-4-4-4-4-4-4-4-4-4-4-|-3-3-3-3-3-3-3-3-3-3-3-3-| 

G|-------------------------|-------------------------|-------------------------| 
D|-------------------------|-------------------------|-------------------------| 
A|-5-5-5-5-5-5-5-5-5-5-5-5-|-------------------------|-------------------------| 
E|-------------------------|-5-5-5-5-5-5-5-5-5-5-5-5-|-4-4-4-4-4-4-4-4-4-4-4-4-| 

G|-------------------------|-------------------------| 
D|-------------------------|-------------------------| 
A|-------------------------|-------------------------| 
E|-3-3-3-3-3-3-3-3-3-3-3-3-|-1-hold-note-------------| 


************************************ 

| /   Slide up 
| \   Slide down 

************************************ 
		  

See also:

bass Simon & Garfunkel - The sounds of silence bass Live - Dolphin“s Cry bass Guns N' Roses - Sweet Child O' Mine bass Guns N' Roses - Civil War bass 4 Non Blondes - What`s up (ver. 1) bass Guns N' Roses - Sweet Child O' Mine (ver. 3)
e-chords

Other versions:

bass Danzig - She Rides
auto scroll beats size up size down change color hide chords drawings
tab show chords e-chords YouTube Clip e-chords hide all tabs e-chords go to top tab

share