Danzig

But A Nightmare

Danzig

tabs

by  ANG-LETRA

save to print version add songbook text version e-mail correct tuner
chordsukulelecavacokeyboardtabbassdrumsharmonicaflute Guitar Pro
close

there isn't a video lesson for this song

chords

But A Nightmare

	  		
Verse 
E|-------------------------------------------|              
B|-------------------------------------------|               
G|-------------------------------------------|              
D|-------------------------------------------|               
A|-2----9-8-7--2----5----5----------9--------|              
E|-0----7-6-5--0----3----3----------7--------|                        
                                 PM: Palm Mute  
                                      
E|-------------------------------| 
B|-------------------------------| 
G|-------------------------------| 
D|-------------------------------| 
A|-2----9-8-7--2----5----5----5--| 
E|-0----7-6-5--0----3----3----3--| 

E|-------------------------------------------| 
B|-------------------------------------------| 
G|-------------------------------------------| 
D|-------------------------------------------| 
A|-2----9-8-7--2----5----5----------9--------| 
E|-0----7-6-5--0----3----3----------7--------| 

E|-------------------------------| 
B|-------------------------------| 
G|-------------------------------| 
D|-------------------------------| 
A|-2----9-8-7--2----5----5----5--| 
E|-0----7-6-5--0----3----3----3--| 
                                
End of Verse 
E|------------------------------------| 
B|------------------------------------| 
G|------------------------------------| 
D|------------------------------------| 
A|-2------------0--0------3-----5-----| 
E|-0------------0--0------5--0--7-----| 4x 
    Hold Note   PM PM 

Chorus 
E|----------------------------------------------------| 
B|----------------------------------------------------| 
G|----------------------------------------------------| 
D|----------------------------------------------------| 
A|-0---0---0---0---0---0------------------------------| 
E|-0---0---0---0---0---0---7--6--5--6--7----3--4--3---| 4x 
         PM HERE       

E|------------------------------------| 
B|------------------------------------| 
G|------------------------------------| 
D|------------------------------------| 
A|-2------------0--0------3-----5-----| 
E|-0------------0--0------5--0--7-----| 4x 
    Hold Note   PM PM   

Verse 
E|-------------------------------------------| 
B|-------------------------------------------| 
G|-------------------------------------------| 
D|-------------------------------------------| 
A|-2----9-8-7--2----5----5----------9--------| 
E|-0----7-6-5--0----3----3----------7--------| 

E|-------------------------------| 
B|-------------------------------| 
G|-------------------------------| 
D|-------------------------------| 
A|-2----9-8-7--2----5----5----5--| 
E|-0----7-6-5--0----3----3----3--| 
                                  
E|-------------------------------------------| 
B|-------------------------------------------| 
G|-------------------------------------------| 
D|-------------------------------------------| 
A|-2----9-8-7--2----5----5----------9--------| 
E|-0----7-6-5--0----3----3----------7--------| 

E|-------------------------------| 
B|-------------------------------| 
G|-------------------------------| 
D|-------------------------------| 
A|-2----9-8-7--2----5----5----5--| 
E|-0----7-6-5--0----3----3----3--| 
  (End of Verse) 

(Play this on the bottom while the solo by the way solo not included)  

E|------------------------------------| 
B|------------------------------------| 
G|------------------------------------| 
D|------------------------------------| 
A|-2------------0--0------3-----5-----| 
E|-0------------0--0------5--0--7-----| x8 
    Hold Note   PM PM 

Verse 
E|-----------------------------------------------| 
B|-----------------------------------------------| 
G|-----------------------------------------------| 
D|-----------------------------------------------| 
A|-0--0--0--0--0--0------------------------------| 
E|-0--0--0--0--0--0---7--6--5--6--7----3--4--3---| x8 Normal speed 
      PM HERE     

E|-----------------------------------------------------| 
B|-----------------------------------------------------| 
G|-----------------------------------------------------| 
D|-----------------------------------------------------| 
A|-0--0--0--0--0--0------------------------------------| 
E|-0--0--0--0--0--0---7--6--5--6--7----3--4--3---------| x12 Fast Speed 
        PM HERE     

E|------------------------------------------------------| 
B|------------------------------------------------------| 
G|------------------------------------------------------| 
D|------------------------------------------------------| 
A|------------------------------------------------------| 
E|---0--0--0--0--0--0--7--6--5--6--7----3--4--3---------|   x12 Fast Speed 
          No PM      

E|-----------------------------------------------| 
B|-----------------------------------------------| 
G|-----------------------------------------------| 
D|-----------------------------------------------| 
A|-2---------------------------2--2--------------| 
E|-0---------------------------0--0--------------| 
                               PM PM 


************************************ 

| PM  Palm mute 

************************************ 
		  

See also:

tabs Van Halen - Pretty Woman tabs Aerosmith - Dream On tabs Mr. Big - To Be With You tabs Jack Johnson - Sitting Waiting Wishing tabs The Offspring - Come Out and Play tabs Guns N' Roses - Sweet Child o' mine
e-chords

Other versions:

tabs Danzig - But A Nightmare
auto scroll beats size up size down change color hide chords drawings
tab show chords e-chords YouTube Clip e-chords hide all tabs e-chords go to top tab

share