Danzig

To Walk The Night

Danzig

tabs

by  ABELAMIN

save to print version add songbook text version e-mail correct tuner
chordsukulelecavacokeyboardtabbassdrumsharmonicaflute Guitar Pro
close

there isn't a video lesson for this song

chords

To Walk The Night

	  		     W                   Q.     E  Q    Q    Q.     S S Q    Q 
E |-------------------|-------------------------------------------| 
B |-------------------|--0--------------3----2------2--------L----| 
G |-------------------|--0--------------0----0--------0------L----| 
D |-------------------|--2--------------2----2----------2----L----| 
A |-------------------|--2------2--2----2----2---------------L----| 
E |-------------------|--0------0--0------------------------------| 

  Q.     E  Q    Q    Q.     S S Q    Q 
-------------------------------------------| 
--0--------------3----2------2--------L----| 
--0--------------0----0--------0------L----| 
--2--------------2----2----------2----L----| 
--2------2--2----2----2---------------L----| 
--0------0--0------------------------------| 

  Q.     E  Q    Q    Q.     S S Q    Q 
-------------------------------------------| 
--0--------------3----2------2--------L----| 
--0--------------0----0--------0------L----| 
--2--------------2----2----------2----L----| 
--2------2--2----2----2---------------L----| 
--0------0--0------------------------------| 

  Q.     E  Q    Q    H        H           W 
----------------------------------------|-------------------| 
--0--------------3----0--------L--------|--L----------------| 
--0--------------0----3--------L--------|--L----------------| 
--2--------------2----2--------L--------|--L----------------| 
--2------2--2----2----2--------L--------|--L----------------| 
--0------0--0---------0--------L--------|--L----------------| 

    Q.     E  Q    Q    Q.     S S Q    Q     (3x) 
|---------------------------------------------|| 
|---0--------------3----2------2--------L-----|| 
|*--0--------------0----0--------0------L----*|| 
|*--2--------------2----2----------2----L----*|| 
|---2------2--2----2----2---------------L-----|| 
|---0------0--0-------------------------------|| 

  Q.     E  E  E  E  E  W 
-----------------------------------------| 
--0--------------------------------------| 
--0---------------------3----------------| 
--2------2--2--2--2--L--2----------------| 
--2------2--2--2--2--L--2----------------| 
--0------0--0--0--0--L--0----------------| 

|---------------------------------------------------| 
|---3--3--3--3--3--3--3--3--3--3--3--3--3--3--3--3--| 
|*--4--4--4--4--4--4--4--4--4--4--4--4--4--4--4--4--| 
|*--5--5--5--5--5--5--5--5--5--5--5--5--5--5--5--5--| 
|---5--5--5--5--5--5--5--5--5--5--5--5--5--5--5--5--| 
|---3--3--3--3--3--3--3--3--3--3--3--3--3--3--3--3--| 

---------------------------------------------------|| 
--4--4--4--4--4--4--4--4--4--4--4--4--4--4--4--4---|| 
--4--4--4--4--4--4--4--4--4--4--4--4--4--4--4--4--*|| 
--4--4--4--4--4--4--4--4--4--4--4--4--4--4--4--4--*|| 
--2--2--2--2--2--2--2--2--2--2--2--2--2--2--2--2---|| 
---------------------------------------------------|| 

--------------------------------------------------| 
--5--5--5--5--5--5--5--5--4--4--4--4--4--4--4--4--| 
--5--5--5--5--5--5--5--5--4--4--4--4--4--4--4--4--| 
--5--5--5--5--5--5--5--5--4--4--4--4--4--4--4--4--| 
--3--3--3--3--3--3--3--3--2--2--2--2--2--2--2--2--| 
--------------------------------------------------| 

  W                W 
--0----------------L----------------| 
--0----------------L----------------| 
--0----------------L----------------| 
--2----------------L----------------| 
--2----------------L----------------| 
--0----------------L----------------| 

      Q.     E  Q    Q    Q.     S S Q    Q     (4x) 
|---------------------------------------------|| 
|---0--------------3----2------2--------L-----|| 
|*--0--------------0----0--------0------L----*|| 
|*--2--------------2----2----------2----L----*|| 
|---2------2--2----2----2---------------L-----|| 
|---0------0--0-------------------------------|| 

---------------------------------------------------| 
---3--3--3--3--3--3--3--3--3--3--3--3--3--3--3--3--| 
*--4--4--4--4--4--4--4--4--4--4--4--4--4--4--4--4--| 
*--5--5--5--5--5--5--5--5--5--5--5--5--5--5--5--5--| 
---5--5--5--5--5--5--5--5--5--5--5--5--5--5--5--5--| 
---3--3--3--3--3--3--3--3--3--3--3--3--3--3--3--3--| 

---------------------------------------------------|| 
--4--4--4--4--4--4--4--4--4--4--4--4--4--4--4--4---|| 
--4--4--4--4--4--4--4--4--4--4--4--4--4--4--4--4--*|| 
--4--4--4--4--4--4--4--4--4--4--4--4--4--4--4--4--*|| 
--2--2--2--2--2--2--2--2--2--2--2--2--2--2--2--2---|| 
---------------------------------------------------|| 

--------------------------------------------------| 
--5--5--5--5--5--5--5--5--4--4--4--4--4--4--4--4--| 
--5--5--5--5--5--5--5--5--4--4--4--4--4--4--4--4--| 
--5--5--5--5--5--5--5--5--4--4--4--4--4--4--4--4--| 
--3--3--3--3--3--3--3--3--2--2--2--2--2--2--2--2--| 
--------------------------------------------------| 

  W                W                   W                 W 
--0----------------L----------------|-------------------------------------| 
--0----------------L----------------|--5-----------------L----------------| 
--0----------------L----------------|--7b----------------L----------------| 
--2----------------L----------------|-------------------------------------| 
--2----------------L----------------|-------------------------------------| 
--0----------------L----------------|-------------------------------------| 

  W                 W 
-------------------------------------| 
--5-----------------L----------------| 
--7b----------------L----------------| 
-------------------------------------| 
-------------------------------------| 
-------------------------------------| 

  Q.     E  Q    Q    Q.     S S Q    Q 
-------------------------------------------| 
--0--------------3----2------2--------L----| 
--0--------------0----0--------0------L----| 
--2--------------2----2----------2----L----| 
--2------2--2----2----2---------------L----| 
--0------0--0------------------------------| 

  Q.     E  Q    Q    Q.     S S Q    Q 
-------------------------------------------| 
--0--------------3----2------2--------L----| 
--0--------------0----0--------0------L----| 
--2--------------2----2----------2----L----| 
--2------2--2----2----2---------------L----| 
--0------0--0------------------------------| 

  Q.     E  Q    Q    Q.     S S Q    Q 
-------------------------------------------| 
--0--------------3----2------2--------L----| 
--0--------------0----0--------0------L----| 
--2--------------2----2----------2----L----| 
--2------2--2----2----2---------------L----| 
--0------0--0------------------------------| 

  Q.     E  Q    Q    H        H           W 
----------------------------------------|-------------------|| 
--0--------------3----0--------L--------|--L----------------|| 
--0--------------0----3--------L--------|--L----------------|| 
--2--------------2----2--------L--------|--L----------------|| 
--2------2--2----2----2--------L--------|--L----------------|| 
--0------0--0---------0--------L--------|--L----------------|| 

(legend) 
W - whole 
H - half 
Q - quarter 
E |- 8th 
S - 16th 
T - 32nd 
X - 64th 
. - note dotted 
|-n-|  - n-tuplets 
		  

See also:

tabs Van Halen - Pretty Woman tabs Aerosmith - Dream On tabs Mr. Big - To Be With You tabs Jack Johnson - Sitting Waiting Wishing tabs The Offspring - Come Out and Play tabs Guns N' Roses - Sweet Child o' mine
e-chords

Other versions:

tabs Danzig - To Walk The Night
auto scroll beats size up size down change color hide chords drawings
tab show chords e-chords YouTube Clip e-chords hide all tabs e-chords go to top tab

share