Danzig

Mother Intro- Verse

Danzig

tabs Beginner beginner

by  HOGENHAM69

save to print version add songbook text version e-mail correct tuner
chordsukulelecavacokeyboardtabbassdrumsharmonicaflute Guitar Pro
close

there isn't a video lesson for this song

chords

Mother Intro- Verse

	  		Mother by Danzig 

p=palm mute 
ho=hammer on 
po=pull off 
b=bend 

standard tuning 

E----------- 
B----------- 
G-----------  8 times 
D----------- 
A-9---5-7-9- 
E-7---3-5-7- 

E-------------------------- 
B-------------------------- 
G--------------------------  8 times 
D------5------------------- 
A----5------7-4--7-8-9----- 
E-5------7----4--7-8-9-9-7- 

E------------------- 
B------------------- 
G------------------- 
D------5------------ 
A----5-----7-4-7--9- 
E-5------7---4-5--7- 

Verse 

E- 
B- 
G- 
D- 
A-5--5--3-3-3-7--7--5-5-5-9--9--10--10-10-10-10-10-10-9-7 
E-3--3--3-3-3-5--5--5-5-5-7--7--8---8--8--8--8--8--8--7-5 


E- 
B- 
G- 
D- 
A-5--5--3-3-3-7--7--5-5-5-9--9-10------999-7 
E-3--3--3-3-3-5--5--5-5-5-7--7-8-------777-5 

thats most of it e-mail me at [email protected] for questions 
		  

See also:

tabs Van Halen - Pretty Woman tabs Aerosmith - Dream On tabs Mr. Big - To Be With You tabs Jack Johnson - Sitting Waiting Wishing tabs The Offspring - Come Out and Play tabs Guns N' Roses - Sweet Child o' mine
e-chords

Other versions:

tabs Danzig - Mother Intro- Verse
auto scroll beats size up size down change color hide chords drawings
tab show chords e-chords YouTube Clip e-chords hide all tabs e-chords go to top tab

share