Danzig

Twist Of Cain

Danzig

tabs Beginner beginner

by  125PROSHADOW

save to print version add songbook text version e-mail correct tuner
chordsukulelecavacokeyboardtabbassdrumsharmonicaflute Guitar Pro
close

there isn't a video lesson for this song

chords

Twist Of Cain

	  		 Riff 1 
E-|-------------------------------------|-------------------------------------| 
B-|-------------------------------------|-------------------------------------| 
G-|-------------------------------------|-------------------------------------| 
D-|-------------------------------------|-------------------------------------| 
A-|--6^7r---0---6---0---3---0---0-------|-7^^^^^--0---6---0---3---0---0-------| 
E-|-------------------------------------|-------------------------------------| 
                                          P.H.(1) 

                                              A(b5)                 End Riff A 
E-|-------------------------------------|-------------------------------------| 
B-|-------------------------------------|-------------------------------------| 
G-|-------------------------------------|-------------------------------------| 
D-|-------------------------------------|-----7--------7-------7--------------| 
A-|--7---7---0---6---0---3---0--0--0----|-----6--------6-------6--------------| 
E-|-------------------------------------|----(5)------(5)-----(5)-------------| 
                                              ^(2)     ^       ^ 

    Riff 2-a Play 3 Times                                      End Riff B-1 
      A5           C5                       A5          C5 
E-|-------------------------------------|-------------------------------------| 
B-|-------------------------------------|-------------------------------------| 
G-|-------------------------------------|-------------------------------------| 
D-|---7--7--7--7/10--10--10--10--10-----|---7--7--7--7/10-10-10-10\\\\\-------| 
A-|---7--7--7--7/10--10--10--10--10-----|---7--7--7--7/10-10-10-10\\\\\-------| 
E-|---5--5--5--5/8---10--8---8---8------|---5--5--5--5/8--8--8--10\\\\\-------| 
      PM ------------------------>          PM -------------->   ^ 

    Riff 2-b                                                  End Riff B-2 
    A5            C5                         A(b5) 
E-|-------------------------------------|-------------------------------------| 
B-|-------------------------------------|-------------------------------------| 
G-|-------------------------------------|-------------------------------------| 
D-|--7--7--7--7/10--10--10--10--10------|----7--------7-------7---------------| 
A-|--7--7--7--7/10--10--10--10--10------|----6--------6-------6---------------| 
E-|--5--5--5--5/8---8---8---8---8-------|---(5)------(5)-----(5)--------------| 
     PM ------------------------>            ^        ^       ^ 

    Riff 3                                                     End Riff C 
      A                                      C5             A5   D5 
E-|-------------------------------------|-------------------------------------| 
B-|-------------------------------------|-------------------------------------| 
G-|---2---------------------------------|----5---5---5---5---2----7----7------| 
D-|---2-------------------------1-------|----5---5---5---5---2----7----7------| 
A-|---0-----3---0---------0-----1-------|----3---3---3---3---0----5----5------| 
E-|------------------3------------------|-------------------------------------| 



		  

Full key step upFull key step up
Half key step upHalf key step up
Half key step downHalf key step down
Full key step downFull key step down
hide glossary

See also:

tabs Van Halen - Pretty Woman tabs Aerosmith - Dream On tabs Mr. Big - To Be With You tabs Jack Johnson - Sitting Waiting Wishing tabs The Offspring - Come Out and Play tabs Guns N' Roses - Sweet Child o' mine
e-chords

Other versions:

tabs Danzig - Twist Of Cain
auto scroll beats size up size down change color hide chords drawings
tab show chords e-chords YouTube Clip e-chords hide all tabs e-chords go to top tab

share