Pink Floyd

home > Pink Floyd

Alan's Psychedelic Breakfast Tab

Pink Floyd

Difficulty: ExpertExpert

tuner correct add songbook print version text version save to e-mail
chordsukulelecavacokeyboardtabbassdrumsharmonicsflute Guitar Pro
chords

Alan's Psychedelic Breakfast

Year: 1970 - Album: Atom Heart Mother

  		 
Part I 
1:59 
|-7////12---7////12---11h12p11\7\4---11h12p11\7\4-----4h5p4-2-4-2-0------| 
|------------------------------------------------------------------------| 
|------------------------------------------------------------------------| 
|------------------------------------------------------------------------| 
|------------------------------------------------------------------------| 
|------------------------------------------------------------------------| 
                                        ~~~~~~~~~~~~~~~~ 
|-0/2/4\2/7-7h9-7h9-7---7h9-7h9-7/12\11\7----------------7h9-7h9-7-4-5-7-| 
|------------------------------------------------------------------------| 
|------------------------------------------------------------------------| 
|------------------------------------------------------------------------| 
|------------------------------------------------------------------------| 
|------------------------------------------------------------------------| 
 
 
|-7h9-7h9-7-4h5-7----5--4----2p0-------------12p11\7\5-4----5p4\2\0-------| 
|---------------------------------2--0------------------------------0-----| 
|-------------------------------------------------------------------------| 
|-------------------------------------------------------------------------| 
|-------------------------------------------------------------------------| 
|-------------------------------------------------------------------------| 
                                ~~~~ 
|-12\11\7\4---12\11\7\4---0/2/4/7----9--12--9h12p9\7-9p7---9h12p9---------| 
|------------------------------------------------------------------12-----| 
|-------------------------------------------------------------------------| 
|-------------------------------------------------------------------------| 
|-------------------------------------------------------------------------| 
|-------------------------------------------------------------------------| 
 
|-9h12p9----9h12p9\7-9p7---7p9p7-4h5p4-2p0------12--14--16--14--12-9h12p9-| 
|---------12--------------------------------0-----------------------------| 
|-------------------------------------------------------------------------| 
|-------------------------------------------------------------------------| 
|-------------------------------------------------------------------------| 
|-------------------------------------------------------------------------| 
 
|------9p7--9h12p9-----9h12p9----9h12p9----9--------------------------9-7-| 
|--12--------------12---------12--------12---12--14--17--14h17p14--12-----| 
|-------------------------------------------------------------------------| 
|-------------------------------------------------------------------------| 
|-------------------------------------------------------------------------| 
|-------------------------------------------------------------------------| 
                           3:16 
                 ~~~~~~~~~~ 
|-4h5h7-4p2p0---12-------------| 
|------------------------------| 
|------------------------------| 
|------------------------------| 
|------------------------------| 
|------------------------------| 
 
 Part II 
|-------------------------------------------------------------------------| 
|-------------------------------------------------------------------------| 
|-------------------------------------------------------------------------| 
|--0-2-4----4-2-0-------------2-0----0-2-4---5-7-5--4---4-5-4--7---9-7-5-7| 
|------------------2-0---0-2-5--------------------------------------------| 
|-------------------------------------------------------------------------| 
 
|-------------------------------------------------------------------------| 
|-------------------------------------------------------------------------| 
|---------9-7--6h7p6--4---------------------------------------------------| 
|--9--12-----------------7--9--4---0-2-4--7--9--11--12--12h14p12-11-9-----| 
|-------------------------------------------------------------------------| 
|-------------------------------------------------------------------------| 
 
|-------------------------------------------------------------------------| 
|-------------------------------------------------------------------------| 
|-------------------------------------------------------------------------| 
|-14-12-11-9--11--9-----7-5-4-5-4-------0-2-4-5-4-2-----0-----------------| 
|-------------------------------------------------------------------------| 
|-------------------------------------------------------------------------| 
 
|-------------------------------------------------------------------------| 
|-------------------------------------------------------------------------| 
|---------------7-6-7-6-7-6-7------7-6-4----6-7-6-4-----------------------| 
|--2-4-7---------------------------------------------7-5-4----4h5p4p2----0| 
|-------------------------------------------------------------------------| 
|-------------------------------------------------------------------------| 
 
|-------------------------------------------------------------------------| 
|-------------------------------------------------------------------------| 
|--------------------------------------------------7-6-7-6-4-7---7-6-7-4-6| 
|-2-4-2--4--2-0-2-0-2-4--4--7--9--12--11-11h12p11h12----------------------| 
|-------------------------------------------------------------------------| 
|-------------------------------------------------------------------------| 
                                                       *harmonics*    
6:37 
|------------------------------------------------------7---------7--------| 
|------------------------------------------------------7---------7--------| 
|-------------------------------------------------------------------------| 
|-7-9-7------7-5-7-4--0-----------0-----------------0---------------------| 
|-------------------------------------------------------------------------| 
|-------------------------------------------------------------------------| 

	  

Search Paypal
auto scroll beats size up size down change color hide chords drawings
tab show chords e-chords YouTube Clip e-chords hide all tabs e-chords go to top tab