Pepper

No Control

Pepper

tabs Beginner beginner

by  VANDCATARINO

save to print version add songbook text version e-mail correct tuner
chordsukulelecavacokeyboardtabbassdrumsharmonicaflute Guitar Pro
close

there isn't a video lesson for this song

chords

No Control

	  		(intro) 
------------------------------------------------------| 
------------------------------------------------------| 
------------------------------------------------------| 
------------------------------------------------------|  (2x) 
-------2-----------------2------2---------------------| 
-0-0-3----0-0-3-0--0-0-3----0-0---3-------------------| 

(verse) 
                (repeat this part) 
-7----7--7---(7-------------------7-7-7)--10-x4-12-x3-| 
-8----7--8---(8-------------------8-7-8)--------------| 
-9-x3-7--9---(9-Reggae-Strums-x7--9-7-9)--------------| 
-9----7--9---(9-------------------9-7-9)--------------| 
------------------------------------------------------| 
------------------------------------------------------| 

(Chorus) 
    (4th time keep going till 3rd chord then) 
-7--7-x-x--7--7-x-x-5--5-x-x--3--3-x-x----------------| 
-8--8-x-x--7--7-x-x-5--5-x-x--3--3-x-x----------------| 
-9--9-x-x--7--7-x-x-5--5-x-x--4--4-x-x--x3------------| 
-9--9-x-x--7--7-x-x-7--7-x-x--5--5-x-x-----5-5-4-3----| 
-7--7-x-x--5--5-x-x-7--7-x-x--5--5-x-x----------------| 
-7--7-x-x--5--5-x-x-5--5-x-x--3--3-x-x------3-3-2-1---| 

(solo) 
------------------------------------------------------| 
------------------------------------------------------| 
------------------------------------------------------| 
------5-----5------------5-5-4-3----------------------| 
----7-----7-----7-----------------repeat--------------| 
--0-----0-----0---7--x3---3-3-2-1---------------------| 
		  

auto scroll beats size up size down change color hide chords drawings
tab show chords e-chords YouTube Clip e-chords hide all tabs e-chords go to top tab

share