Pepper

Start You Up

Pepper

tabs

by  JOV-CORREA

save to print version add songbook text version e-mail correct tuner
chordsukulelecavacokeyboardtabbassdrumsharmonicaflute Guitar Pro
close

there isn't a video lesson for this song

chords

Start You Up

	  		
Intro 2x 
e|-------------------|----------------------| 
B|-------------------|----------------------| 
G|-------------------|----------------------| 
D|-------------------|----------------------| 
A|--888-8-8----------|--888-8-8-------------| 
E|-----------66-4h6--|-----------6-4h6p4----| 

Verse 
e|--8---8---6--6-----------| 
B|--9---9---8--8-----------| 
G|--10--10--8--8-----------| 
D|--10--10--8--8-----------| 
A|--8---8---6--6-----------| 
E|-------------------------| 

Chorus 
e|--8---8---9---9---8--8---6--6--| 
B|--9---9---9---9---9--9---8--8--| 
G|--10--10--10--10--10-10--8--8--| 
D|--10--10--11--11--10-10--8--8--| 
A|--8---8---11--11--8--8---6--6--| 
E|----------9---9----------------| 
		  

auto scroll beats size up size down change color hide chords drawings
tab show chords e-chords YouTube Clip e-chords hide all tabs e-chords go to top tab

share