Pencey Prep

Yesterday

Pencey Prep

tabs Easy easy

by  TYNAWAY

save to print version add songbook text version e-mail correct tuner
chordsukulelecavacokeyboardtabbassdrumsharmonicaflute Guitar Pro
close

there isn't a video lesson for this song

chords

Yesterday

	  		Intro: 

e|------------------------------------------| 
B|------------------------------------------| 
G|------------------------------------------| 
D|----------11-----11-------------9--9------| 
A|-12-12-12----12----12--11-11-11--11-11----| 
E|------------------------------------------| 



e|------------------------------------------| 
B|------------------------------------------| 
G|------------------------------------------| 
D|----------11----11--------------9----9h11-| 
A|-12-12-12----12----12--11-11-11---11------| 
E|------------------------------------------| 



e|--------------------------------------------------------------| 
B|--------------------------------------------------------------| 
G|--------------------------------------------------------------| 
D|-xxx7------xxx4------x7------x4-----44-66-77-99---------------| 
A|-xxx7------xxx4------x7------x4-----44-66-77-99---------------| 
E|-xxx5-(4x)-xxx2-(4x)-x5-(4x)-x2(2x)-22-44-55-77---------------| 


Piano: 

E|-----------------| 
B|-----------------| 
G|-9~-13~-14~-13~--| 
D|-----------------| 
A|-----------------| 
E|-----------------| (2x) 


Verse 1: 

e|--------------------| 
B|--------------------| 
G|-9~--9-7-6----------| 
D|-x~--x-x-x-7-6-7-6--| 
A|-7~--7-5-4-x-x-x-x--| 
E|-----------5-4-5-4--| (2x) 


Then intro, but the last four chords are: 

e|--------------| 
B|--------------| 
G|-11-13-14-16--| 
D|-x--xx-xx-xx--| 
A|-9--11-12-14--| 
E|--------------| 


Chorus: 

e|------------------------------| 
B|------------------------------| 
G|--14--13--11--9---------------| 
D|---x---x---x--x--7--9--11-11--| 
A|--12--11---9--7--x--x--xx-xx--| 
E|-----------------5--7--9--9---| 


{Repeat All} 
{Intro but with octaves} 
{Verse} 

Intro but the piano is this instead: 

e|------------| 
B|------------| 
G|-9-13-14-13-| 
D|-x-xx-xx-xx-| 
A|-7-11-12-11-| 
E|------------| 


{Chorus} 

Play intro but end with: 
e|---| 
B|---| 
G|---| 
D|-7-| 
A|---| 
E|---| 


| /  slide up 
| \  slide down 
| h  hammer-on 
| p  pull-off 
| ~  vibrato 
| +  harmonic 
| x  Mute note 
| ^  Bend 
clipesvídeo-aulavocê tocando 

afinador 
rolagem 
dicionário 
favoritar cifra 
add a minhas cifras 
letra 
tradução 
fotos 
vídeos 
imprimir 
corrigir 
salvar txt 
Texto Colunas 
diminuir 
  
aumentar 
uma 
  
duas 
Alterar tom 
½ tom ½ tom 
afinação acordes na letra esconder tabs 
mais » 
Cifra  
486 exibições 
Email 
		  

See also:

tabs Red Hot Chili Peppers - Tell Me Baby tabs Red Hot Chili Peppers - Otherside (ver. 2) tabs Red Hot Chili Peppers - All Around The World tabs Paramore - Crushcrushcrush tabs Red Hot Chili Peppers - Venice Queen tabs Good Charlotte - Lifestyles of the Rich and Famous
e-chords

Other versions:

tabs James Blunt - Yesterday tabs Sum 41 - Yesterday tabs Pencey Prep - Yesterday tabs The Beatles - Yesterday (guitar voice) tabs The Beatles - Yesterday (solo play) tabs The Beatles - Yesterday (tab)
auto scroll beats size up size down change color hide chords drawings
tab show chords e-chords YouTube Clip e-chords hide all tabs e-chords go to top tab

share