Paul McCartney

home > Paul McCartney

Listen To What The Man Said Tab

Paul McCartney

Difficulty: nolevelnolevel

by edsooliveira

tuner correct add songbook print version text version save to e-mail
chordsukulelecavacokeyboardtabbassdrumsharmonicsflute Guitar Pro
chords

Listen To What The Man Said

  		

Gtr I (E A D G B E) - 'Tom Scott - Soprano Sax' 
Gtr II (E A D G B E) - 'Dave Mason - Electric Guitar' 
Gtr III (E A D G B E) - 'Denny Laine - Acoustic Guitar' 
Gtr IV (E A D G B E) - 'Strings' 
Gtr V (E A D G B E) - 'Cello' 
Gtr VI (E A D G B E) - 'Harp' 

 
Intro: G

  Q=114 
  
 4/4 
  Gtr I (Sax. arr. for Gtr.) 
  W                     W 
|-------------------|---------------------| 
|-------------------|---------------------| 
|-------------------|---------------------| 
|-------------------|---------------------| 
|-------------------|---------------------| 
|-------------------|---------------------| 
| 
| Gtr II (El. Gtr.) 
| E Q   E +Q    E E   a E Q   E +H 
|-------------------|---------------------| 
|-------------------|---------------------| 
|-------7-(7)-------|---------------------| 
|-4-5-----------4-5-|---------------------| 
|-------------------|-5s7-5---5-(5)-------| 
|-------------------|---------------------| 
| 
| Gtr III (Ac. Gtr.) 
| E E E E  E  E E E     E E E E  E  E E E 
|-3-3-3-3--3--3-3-3-|---3-3-3-3--3--3-3-3-| 
|-0-0-0-0--0--0-0-0-|---0-0-0-0--0--0-0-0-| 
|-0-0-0-0--0--0-0-0-|---0-0-0-0--0--0-0-0-| 
|-0-0-0-0--0--0-0-0-|---0-0-0-0--0--0-0-0-| 
|-2-2-2-2--2--2-2-2-|---2-2-2-2--2--2-2-2-| 
|-3-3-3-3--3--3-3-3-|---3-3-3-3--3--3-3-3-| 


  W                     H        E   S  S  +S   E    S 
|-------------------|---------------18-19-(19)-18------| 
|-------------------|-------------------------------17-| 
|-------------------|----------------------------------| 
|-------------------|----------------------------------| 
|-------------------|----------------------------------| 
|-------------------|----------------------------------| 
| 
| E Q   E +Q    E E   a E Q   E +H 
|-------------------|----------------------------------| 
|-------------------|----------------------------------| 
|-------7-(7)-------|----------------------------------| 
|-4-5-----------4-5-|----------------------------------| 
|-------------------|-5s7-5---5-(5)--------------------| 
|-------------------|----------------------------------| 
| 
| E E E E  E  E E E     E E E E  E   E      E     S  S 
|-3-3-3-3--3--3-3-3-|---3-3-3-3--3---3------3-----3--3-| 
|-0-0-0-0--0--0-0-0-|---0-0-0-0--0---0------0-----0--0-| 
|-0-0-0-0--0--0-0-0-|---0-0-0-0--0---0------0-----0--0-| 
|-0-0-0-0--0--0-0-0-|---0-0-0-0--0---0------0-----0--0-| 
|-2-2-2-2--2--2-2-2-|---2-2-2-2--2---2------2-----2--2-| 
|-3-3-3-3--3--3-3-3-|---3-3-3-3--3---3------3-----3--3-| 


   Q    E  E  H            E  S  S  Q    S   S  S  S  Q 
|-15-------------------|-----------15---15----------------| 
|------17\-------------|-----15-17----------17-15---------| 
|----------------------|--------------------------15-16---| 
|----------------------|----------------------------------| 
|----------------------|----------------------------------| 
|----------------------|----------------------------------| 
| 
|  E Q     E +Q    E E   a E  Q       E +H 
|----------------------|----------------------------------| 
|----------------------|----------------------------------| 
|----------7-(7)-------|----------------------------------| 
|--4-5-------------4-5-|----------------------------------| 
|----------------------|-5s7--5-------5-(5)---------------| 
|----------------------|----------------------------------| 
| 
|  E E  E  E  E  E E E     E  E     E E  E      E     E E 
|--3-3--3--3--3--3-3-3-|---3--3-----3-3--3------3-----3-3-| 
|--0-0--0--0--0--0-0-0-|---0--0-----0-0--0------0-----0-0-| 
|--0-0--0--0--0--0-0-0-|---0--0-----0-0--0------0-----0-0-| 
|--0-0--0--0--0--0-0-0-|---0--0-----0-0--0------0-----0-0-| 
|--2-2--2--2--2--2-2-2-|---2--2-----2-2--2------2-----2-2-| 
|--3-3--3--3--3--3-3-3-|---3--3-----3-3--3------3-----3-3-| 


  W                     W 
|-------------------|-----------------------|| 
|-------------------|-----------------------|| 
|-------------------|-----------------------|| 
|-------------------|-----------------------|| 
|-------------------|-----------------------|| 
|-------------------|-----------------------|| 
| 
| E Q   E +Q    E E   a E Q   E +H 
|-------------------|-----------------------|| 
|-------------------|-----------------------|| 
|-------7-(7)-------|-----------------------|| 
|-4-5-----------4-5-|-----------------------|| 
|-------------------|-5s7-5---5-(5)---------|| 
|-------------------|-----------------------|| 
| 
| E E E E  E  E E E     E E E E  E  E E S S 
|-3-3-3-3--3--3-3-3-|---3-3-3-3--3--3-3-3-3-|| 
|-0-0-0-0--0--0-0-0-|---0-0-0-0--0--0-0-0-0-|| 
|-0-0-0-0--0--0-0-0-|---0-0-0-0--0--0-0-0-0-|| 
|-0-0-0-0--0--0-0-0-|---0-0-0-0--0--0-0-0-0-|| 
|-2-2-2-2--2--2-2-2-|---2-2-2-2--2--2-2-2-2-|| 
|-3-3-3-3--3--3-3-3-|---3-3-3-3--3--3-3-3-3-|| 


   1st & 2nd Verses 
    D                 Cmaj7             Bm7               E7sus4E7 
    Gtr II 
    E E E E E E E E   E E E E E E E E   E E E E E E E E   E Q   E +Q   Q 
||--7---7---7---7---|-7---7---7---7---|-7---7---7---7---|-5-5---4-(4)--4---| 
||o-7---7---7---7---|-8---8---8---8---|-7---7---7---7---|-5-5---5-(5)--5---| 
||--7---7---7---7---|-9---9---9---9---|-7---7---7---7---|-4-4---4-(4)--4---| 
||------------------|-----------------|-----------------|------------------| 
||o-----------------|-----------------|-----------------|------------------| 
||------------------|-----------------|-----------------|------------------| 
| 
|   Gtr III 
|   E E E E E E E E   E E E E E E E E   E E E E E E E E   E E E E +Q   Q 
||--2-2-2-2-2-2-2-2-|-0-0-0-0-0-0-0-0-|-2-2-2-2-2-2-2-2-|-0-0-0-0-(0)--0---| 
||o-3-3-3-3-3-3-3-3-|-0-0-0-0-0-0-0-0-|-3-3-3-3-3-3-3-3-|-0-0-0-0-(0)--0---| 
||--2-2-2-2-2-2-2-2-|-0-0-0-0-0-0-0-0-|-2-2-2-2-2-2-2-2-|-2-2-2-1-(1)--1---| 
||--0-0-0-0-0-0-0-0-|-2-2-2-2-2-2-2-2-|-4-4-4-4-4-4-4-4-|-0-0-0-0-(0)--0---| 
||o-----------------|-3-3-3-3-3-3-3-3-|-2-2-2-2-2-2-2-2-|-2-2-2-2-(2)--2---| 
||------------------|-----------------|-----------------|-0-0-0-0-(0)--0---| 


  Am7               Bm7 
  Gtr I 
  W                 W 
|-----------------|-----------------| 
|-----------------|-----------------| 
|-----------------|-----------------| 
|-----------------|-----------------| 
|-----------------|-----------------| 
|-----------------|-----------------| 
| 
| Gtr II 
| E E E E E E E E   E E E E E E E E 
|-5---5---5---5---|-7---7---7---7---| 
|-5---5---5---5---|-7---7---7---7---| 
|-5---5---5---5---|-7---7---7---7---| 
|-----------------|-----------------| 
|-----------------|-----------------| 
|-----------------|-----------------| 
| 
| Gtr III 
| E E E E E E E E   E E E E E E E E 
|-0-0-0-0-0-0-0-0-|-2-2-2-2-2-2-2-2-| 
|-1-1-1-1-1-1-1-1-|-3-3-3-3-3-3-3-3-| 
|-0-0-0-0-0-0-0-0-|-2-2-2-2-2-2-2-2-| 
|-2-2-2-2-2-2-2-2-|-4-4-4-4-4-4-4-4-| 
|-0-0-0-0-0-0-0-0-|-2-2-2-2-2-2-2-2-| 
|-----------------|-----------------| 


  Cmaj7 
  H        E.    S  E  S  S    +Q      E.    S  E.    S  E  E 
|------------------------15-|-(15)----17-------15-------------|| 
|---------------------17----|---------------17-------17-15----|| 
|------------------17-------|------------------------------17-|| 
|---------------17----------|---------------------------------|| 
|---------------------------|---------------------------------|| 
|---------------------------|---------------------------------|| 
| 
| Q.     E Q        Q          +E  Q.           Q        Q 
|-7------7-7--------7-------|--(7)-7------------7--------7----|| 
|-8------8-8--------8-------|--(8)-8------------8--------8----|| 
|-9------9-9--------9-------|--(9)-9------------9--------9----|| 
|---------------------------|---------------------------------|| 
|---------------------------|---------------------------------|| 
|---------------------------|---------------------------------|| 
| 
| E  E E E E  E     E  E        E  E   E  E     E  E     E  E 
|-0--0-0-0-0--0-----0--0----|---0--0---0--0-----0--0-----0--0-|| 
|-0--0-0-0-0--0-----0--0----|---0--0---0--0-----0--0-----0--0-|| 
|-0--0-0-0-0--0-----0--0----|---0--0---0--0-----0--0-----0--0-|| 
|-2--2-2-2-2--2-----2--2----|---2--2---2--2-----2--2-----2--2-|| 
|-3--3-3-3-3--3-----3--3----|---3--3---3--3-----3--3-----3--3-|| 
|---------------------------|---------------------------------|| 


 Interlude 
  G 
  W                     S  S  S  S  E.    S  S   S  S  S  +E   E 
|-------------------|--------------19-------17-------------------| 
|-------------------|--------17-20-------20-----20-17-20-(20)----| 
|-------------------|-----19----------------------------------19-| 
|-------------------|--------------------------------------------| 
|-------------------|--------------------------------------------| 
|-------------------|--------------------------------------------| 
| 
| Gtr II 
| E Q   E +Q    E E   a E     Q        E    +H 
|-------------------|--------------------------------------------| 
|-------------------|--------------------------------------------| 
|-------7-(7)-------|--------------------------------------------| 
|-4-5-----------4-5-|--------------------------------------------| 
|-------------------|-5s7-----5--------5----(5)------------------| 
|-------------------|--------------------------------------------| 
| 
| Gtr III 
| E E E E  E  E E E     E     E     E  E     E      E      E   E 
|-3-3-3-3--3--3-3-3-|---3-----3-----3--3-----3------3------3---3-| 
|-0-0-0-0--0--0-0-0-|---0-----0-----0--0-----0------0------0---0-| 
|-0-0-0-0--0--0-0-0-|---0-----0-----0--0-----0------0------0---0-| 
|-0-0-0-0--0--0-0-0-|---0-----0-----0--0-----0------0------0---0-| 
|-2-2-2-2--2--2-2-2-|---2-----2-----2--2-----2------2------2---2-| 
|-3-3-3-3--3--3-3-3-|---3-----3-----3--3-----3------3------3---3-| 


           |----3-----| 
  H        Q     Q    Q 
|---------------19---20----| 
|--------------------------| 
|--------------------------| 
|--------------------------| 
|--------------------------| 
|--------------------------| 
| 
| E Q   E +Q       E    E 
|--------------------------| 
|--------------------------| 
|-------7-(7)--------------| 
|-4-5--------------4----5--| 
|--------------------------| 
|--------------------------| 
| 
| E E E E  E  E    E    E 
|-3-3-3-3--3--3----3----3--| 
|-0-0-0-0--0--0----0----0--| 
|-0-0-0-0--0--0----0----0--| 
|-0-0-0-0--0--0----0----0--| 
|-2-2-2-2--2--2----2----2--| 
|-3-3-3-3--3--3----3----3--| 


  1. 
     E.    S  +E   E  S   S  E  E  E 
|---22----19-(19)---------------------|| 
|--------------------20--20----20----o|| 
|-----------------21--------19----19--|| 
|-------------------------------------|| 
|------------------------------------o|| 
|-------------------------------------|| 
| 
| a  E  Q          E +H 
|-------------------------------------|| 
|------------------------------------o|| 
|-------------------------------------|| 
|-------------------------------------|| 
|-5s=7--5----------5-(5)-------------o|| 
|-------------------------------------|| 
| 
|    E  E      E   E  E      E  E  E 
|----3--3------3---3--3------3--3--3--|| 
|----0--0------0---0--0------0--0--0-o|| 
|----0--0------0---0--0------0--0--0--|| 
|----0--0------0---0--0------0--0--0--|| 
|----2--2------2---2--2------2--2--2-o|| 
|----3--3------3---3--3------3--3--3--|| 


                         Chorus 
 2. 
                      $ 
                          Am7 
    W                     W                 W 
|---------------------||------------------|-----------------| 
|---------------------||o-----------------|-----------------| 
|---------------------||------------------|-----------------| 
|---------------------||------------------|-----------------| 
|---------------------||o-----------------|-----------------| 
|---------------------||------------------|-----------------| 
| 
| a E Q   E +H            E E E E E E E E   E E E E E E E E 
|---------------------||--5---5---5---5---|-5---5---5---5---| 
|---------------------||o-5---5---5---5---|-5---5---5---5---| 
|---------------------||--5---5---5---5---|-5---5---5---5---| 
|---------------------||------------------|-----------------| 
|-5s7-5---5-(5)-------||o-----------------|-----------------| 
|---------------------||------------------|-----------------| 
| 
|   E E E E  E  E E E     E E E E E E E E   E E E E E E E E 
|---3-3-3-3--3--3-3-3-||--0-0-0-0-0-0-0-0-|-0-0-0-0-0-0-0-0-| 
|---0-0-0-0--0--0-0-0-||o-1-1-1-1-1-1-1-1-|-1-1-1-1-1-1-1-1-| 
|---0-0-0-0--0--0-0-0-||--0-0-0-0-0-0-0-0-|-0-0-0-0-0-0-0-0-| 
|---0-0-0-0--0--0-0-0-||--2-2-2-2-2-2-2-2-|-2-2-2-2-2-2-2-2-| 
|---2-2-2-2--2--2-2-2-||o-0-0-0-0-0-0-0-0-|-0-0-0-0-0-0-0-0-| 
|---3-3-3-3--3--3-3-3-||------------------|-----------------| 


  G       Am7/G     G               G7            C 
  W                 E  S  S  +E   E  E  E  E  E   H       Q    E  E 
|-----------------|------15-(15)----17-17-15----|-------------15-17-| 
|-----------------|---17---------17----------17-|-------------------| 
|-----------------|-----------------------------|-------------------| 
|-----------------|-----------------------------|-------------------| 
|-----------------|-----------------------------|-------------------| 
|-----------------|-----------------------------|-------------------| 
| 
| E E E E E E E E   E  E      E   E  E  E  E  E   E E E E E E  E  E 
|-3---3---5---5---|-3---------3------3-----3----|-3---3---5----5----| 
|-3---3---5---5---|-3---------3------6-----6----|-5---5---5----5----| 
|-4---4---5---5---|-4---------4------4-----4----|-5---5---5----5----| 
|-----------------|-----------------------------|-------------------| 
|-----------------|-----------------------------|-------------------| 
|-----------------|-----------------------------|-------------------| 
| 
| E E E E E E E E   E  E      E   E  E  E  E  E   E E E E E E  E  E 
|-3-3-3-3-0-0-0-0-|-3--3------3---3--1--1--1--1-|-0-0-0-0-0-0--0--0-| 
|-0-0-0-0-1-1-1-1-|-0--0------0---0--0--0--0--0-|-1-1-1-1-1-1--1--1-| 
|-0-0-0-0-0-0-0-0-|-0--0------0---0--0--0--0--0-|-0-0-0-0-0-0--0--0-| 
|-0-0-0-0-2-2-2-2-|-0--0------0---0--0--0--0--0-|-2-2-2-2-2-2--2--2-| 
|-2-2-2-2-0-0-0-0-|-2--2------2---2--2--2--2--2-|-3-3-3-3-3-3--3--3-| 
|-3-3-3-3-3-3-3-3-|-3--3------3---3--3--3--3--3-|-------------------| 


                           G        Am7/G 
   Q   Q   E  E  S  S  E    Q   Q   H 
|-15------------15-17----|------------------| 
|------------17-------17-|-15---------------| 
|------------------------|------------------| 
|------------------------|------------------| 
|------------------------|------------------| 
|------------------------|------------------| 
| 
|  E E E E E  E  E     E    E E E E E E E E 
|--7---7---7-----7-------|--3---3---5---5---| 
|--5---5---5-----5-------|--3---3---5---5---| 
|--5---5---5-----5-------|--4---4---5---5---| 
|------------------------|------------------| 
|------------------------|------------------| 
|------------------------|------------------| 
| 
|  E E E E E  E  E     E    E E E E E E E E 
|--0-0-0-0-0--0--0-----0-|--3-3-3-3-0-0-0-0-| 
|--1-1-1-1-1--1--1-----1-|--0-0-0-0-1-1-1-1-| 
|--0-0-0-0-0--0--0-----0-|--0-0-0-0-0-0-0-0-| 
|--2-2-2-2-2--2--2-----2-|--0-0-0-0-2-2-2-2-| 
|--3-3-3-3-3--3--3-----3-|--2-2-2-2-0-0-0-0-| 
|------------------------|--3-3-3-3-3-3-3-3-| 


  D                   Am7                       G         Am7/G 
  S  S  S  S  E  S  S  +S   E    S  +S   E.      Q.     E H 
|------15----15----17-(17)------17-(17)-------|-15------------------| 
|---15----15----15---------15-----------15----|---------------------| 
|---------------------------------------------|---------------------| 
|---------------------------------------------|---------------------| 
|---------------------------------------------|---------------------| 
|---------------------------------------------|---------------------| 
| 
| E     Q        E      Q            Q           E  E E E E Q   E 
|-------5--------5------5------------5--------|--3----3---5-5---5---| 
|-------7--------7------5------------5--------|--3----3---5-5---7---| 
|-------7--------7------5------------5--------|--4----4---5-5---7---| 
|---------------------------------------------|---------------------| 
|---------------------------------------------|---------------------| 
|---------------------------------------------|---------------------| 
| 
| E     E     E  E      E     E      E      E    E  E E E E E E E 
|-2-----2-----2--2------0-----0------0------0-|--3--3-3-3-0-0-0-0---| 
|-3-----3-----3--3------1-----1------1------1-|--0--0-0-0-1-1-1-1---| 
|-2-----2-----2--2------0-----0------0------0-|--0--0-0-0-0-0-0-0---| 
|-0-----0-----0--0------2-----2------2------2-|--0--0-0-0-2-2-2-2---| 
|-----------------------0-----0------0------0-|--2--2-2-2-0-0-0-0---| 
|---------------------------------------------|--3--3-3-3-3-3-3-3---| 


                                    Interlude 
  D                    Am7           G 
   S   S  S  S  +E   E  +E  E Q      W 
|-15--15----15-(15)---------------||-------------------| 
|--------17---------17-(17)-------||-------------------| 
|---------------------------------||-------------------| 
|---------------------------------||-------------------| 
|---------------------------------||-------------------| 
|---------------------------------||-------------------| 
| 
| +E      Q          E   Q    Q      E Q   E +Q    E E 
|-(5)-----5----------5---5----5---||-------------------| 
|-(7)-----7----------7---5----5---||-------------------| 
|-(7)-----7----------7---5----5---||-------7-(7)-------| 
|---------------------------------||-4-5-----------4-5-| 
|---------------------------------||-------------------| 
|---------------------------------||-------------------| 
| 
|  E      E      E   E   E  E E E    E E E E  E  E E E 
|--2------2------2---2---0--0-0-0-||-3-3-3-3--3--3-3-3-| 
|--3------3------3---3---1--1-1-1-||-0-0-0-0--0--0-0-0-| 
|--2------2------2---2---0--0-0-0-||-0-0-0-0--0--0-0-0-| 
|--0------0------0---0---2--2-2-2-||-0-0-0-0--0--0-0-0-| 
|------------------------0--0-0-0-||-2-2-2-2--2--2-2-2-| 
|---------------------------------||-3-3-3-3--3--3-3-3-| 


                                   To Coda 
    W                   W 
|---------------------|--------------------| 
|---------------------|--------------------| 
|---------------------|--------------------| 
|---------------------|--------------------| 
|---------------------|--------------------| 
|---------------------|--------------------| 
| 
| a E Q   E +H          E Q   E +Q    E E 
|---------------------|--------------------| 
|---------------------|--------------------| 
|---------------------|-------7-(7)--------| 
|---------------------|-4-5-----------4-5--| 
|-5s7-5---5-(5)-------|--------------------| 
|---------------------|--------------------| 
| 
|   E E E E  E  E E E   E E E E  E  E E E 
|---3-3-3-3--3--3-3-3-|-3-3-3-3--3--3-3-3--| 
|---0-0-0-0--0--0-0-0-|-0-0-0-0--0--0-0-0--| 
|---0-0-0-0--0--0-0-0-|-0-0-0-0--0--0-0-0--| 
|---0-0-0-0--0--0-0-0-|-0-0-0-0--0--0-0-0--| 
|---2-2-2-2--2--2-2-2-|-2-2-2-2--2--2-2-2--| 
|---3-3-3-3--3--3-3-3-|-3-3-3-3--3--3-3-3--| 


                        Sax Solo 
  1. 
                         D 
    W                    H       E  E  Q 
|---------------------||-------------------| 
|---------------------||--------------15---| 
|---------------------||-----------16------| 
|---------------------||-------------------| 
|---------------------||-------------------| 
|---------------------||-------------------| 
| 
| a E Q   E +H           E E E E E  E  E E 
|---------------------||-7---7---7-----7---| 
|---------------------||-7---7---7-----7---| 
|---------------------||-7---7---7-----7---| 
|---------------------||-------------------| 
|-5s7-5---5-(5)-------||-------------------| 
|---------------------||-------------------| 
| 
|   E E E E  E  E E E    E E E E E  E  E E 
|---3-3-3-3--3--3-3-3-||-2-2-2-2-2--2--2-2-| 
|---0-0-0-0--0--0-0-0-||-3-3-3-3-3--3--3-3-| 
|---0-0-0-0--0--0-0-0-||-2-2-2-2-2--2--2-2-| 
|---0-0-0-0--0--0-0-0-||-0-0-0-0-0--0--0-0-| 
|---2-2-2-2--2--2-2-2-||-------------------| 
|---3-3-3-3--3--3-3-3-||-------------------| 


  Cmaj7 
   S  E    S  +E   S  S  +S   E    S  +E   E 
|----15---15-(15)----17-(17)-19---------------| 
|-17--------------17--------------20-(20)-----| 
|-----------------------------------------21--| 
|---------------------------------------------| 
|---------------------------------------------| 
|---------------------------------------------| 
| 
|  E    E      E   E      E     E      E   E 
|--7-----------7----------7------------7------| 
|--8-----------8----------8------------8------| 
|--9-----------9----------9------------9------| 
|---------------------------------------------| 
|---------------------------------------------| 
|---------------------------------------------| 
| 
|  E    E      E   E      E     E      E   E 
|--0----0------0---0------0-----0------0---0--| 
|--0----0------0---0------0-----0------0---0--| 
|--0----0------0---0------0-----0------0---0--| 
|--2----2------2---2------2-----2------2---2--| 
|--3----3------3---3------3-----3------3---3--| 
|---------------------------------------------| 


  Bm7 
  E.    S  +S   E    S  S  S  E  +S   S  S  S 
|---------------------------------------------| 
|------19-(19)-19------17------------------17-| 
|-------------------19----16-19-(19)-16-19----| 
|---------------------------------------------| 
|---------------------------------------------| 
|---------------------------------------------| 
| 
| E  E      E     E     E     E   E      E 
|-7---------7-----------7---------7-----------| 
|-7---------7-----------7---------7-----------| 
|-7---------7-----------7---------7-----------| 
|---------------------------------------------| 
|---------------------------------------------| 
|---------------------------------------------| 
| 
| E  E      E     E     E     E   E      E 
|-2--2------2-----2-----2-----2---2------2----| 
|-3--3------3-----3-----3-----3---3------3----| 
|-2--2------2-----2-----2-----2---2------2----| 
|-4--4------4-----4-----4-----4---4------4----| 
|-2--2------2-----2-----2-----2---2------2----| 
|---------------------------------------------| 


  E7sus4         E7                Am7 
   +Q     +S   S  S  S  E.  S Q    S  S  S  S  S  S  S  S  E.    S  S  E    S 
|--------------------------------|------------------------15-------15-17---15-| 
|-(17)---(17)--------------------|------------------15-17-------17------------| 
|-------------16-----------------|---16----------16---------------------------| 
|----------------19-17-18--------|------19-18-19------------------------------| 
|--------------------------19----|--------------------------------------------| 
|--------------------------------|--------------------------------------------| 
| 
|   E  Q          E    +Q     Q    E     E     E     E     E  E     E    E 
|---5--5----------4----(4)----4--|-5-----------5-----------5--------5---------| 
|---5--5----------5----(5)----5--|-5-----------5-----------5--------5---------| 
|---4--4----------4----(4)----4--|-5-----------5-----------5--------5---------| 
|--------------------------------|--------------------------------------------| 
|--------------------------------|--------------------------------------------| 
|--------------------------------|--------------------------------------------| 
| 
|   E  E   E      E    +Q     Q    E     E     E     E     E  E     E    E 
|---0--0---0------0----(0)----0--|-0-----0-----0-----0-----0--0-----0----0----| 
|---0--0---0------0----(0)----0--|-1-----1-----1-----1-----1--1-----1----1----| 
|---2--2---2------1----(1)----1--|-0-----0-----0-----0-----0--0-----0----0----| 
|---0--0---0------0----(0)----0--|-2-----2-----2-----2-----2--2-----2----2----| 
|---2--2---2------2----(2)----2--|-0-----0-----0-----0-----0--0-----0----0----| 
|---0--0---0------0----(0)----0--|--------------------------------------------| 


  Bm7                                          Cmaj7 
   E.    S  +S   S  S  S  S  S  E  +S   S  E    Q    E  E  Q    S  S  S  S 
|-17-----------------------------------------|-19---22-19------17----------| 
|-------17-(17)-15-------15----15-(15)-17-20-|------------20------20-17-20-| 
|------------------16-14----16---------------|-----------------------------| 
|--------------------------------------------|-----------------------------| 
|--------------------------------------------|-----------------------------| 
|--------------------------------------------|-----------------------------| 
| 
|  E  E      E      E     E     E   E      E    E E  E  E  E E  E     E 
|--7---------7------------7---------7--------|--7----7-----7----7----------| 
|--7---------7------------7---------7--------|--8----8-----8----8----------| 
|--7---------7------------7---------7--------|--9----9-----9----9----------| 
|--7---------7------------7---------7--------|-----------------------------| 
|--------------------------------------------|-----------------------------| 
|--------------------------------------------|-----------------------------| 
| 
|  E  E      E      E     E     E   E      E    E E  E  E  E E  E     E 
|--2--2------2------2-----2-----2---2------2-|--0-0--0--0--0-0--0-----0----| 
|--3--3------3------3-----3-----3---3------3-|--0-0--0--0--0-0--0-----0----| 
|--2--2------2------2-----2-----2---2------2-|--0-0--0--0--0-0--0-----0----| 
|--4--4------4------4-----4-----4---4------4-|--2-2--2--2--2-2--2-----2----| 
|--2--2------2------2-----2-----2---2------2-|--3-3--3--3--3-3--3-----3----| 
|--------------------------------------------|-----------------------------| 


   +E   S  S  S  E.    S  S  S  S  S  S  E 
|------17-------------19-19-17-17----------|| 
|-(20)----20-17-20----------------20-20-17-|| 
|------------------------------------------|| 
|------------------------------------------|| 
|------------------------------------------|| 
|------------------------------------------|| 
| 
|   E   E     E     E  E     E     E     E 
|---7---------7--------7-----------7-------|| 
|---8---------8--------8-----------8-------|| 
|---9---------9--------9-----------9-------|| 
|------------------------------------------|| 
|------------------------------------------|| 
|------------------------------------------|| 
| 
|   E   E     E     E  E     E     E     E 
|---0---0-----0-----0--0-----0-----0-----0-|| 
|---0---0-----0-----0--0-----0-----0-----0-|| 
|---0---0-----0-----0--0-----0-----0-----0-|| 
|---2---2-----2-----2--2-----2-----2-----2-|| 
|---3---3-----3-----3--3-----3-----3-----3-|| 
|------------------------------------------|| 


 Interlude 
  G 
   Q   Q    Q    E  S  S      Q   Q    Q     E.    S 
|------------------------|------------------19----20--| 
|------------------17----|---15-----------------------| 
|-19------------------16-|----------------------------| 
|------------------------|----------------------------| 
|------------------------|----------------------------| 
|------------------------|----------------------------| 
| 
|  E Q   E +Q    E  E      a  E Q   E +H 
|------------------------|----------------------------| 
|------------------------|----------------------------| 
|--------7-(7)-----------|----------------------------| 
|--4-5-----------4--5----|----------------------------| 
|------------------------|-5s=7-5---5-(5)-------------| 
|------------------------|----------------------------| 
| 
|  E E E E  E  E E  E         E E E E  E  E  E  E 
|--3-3-3-3--3--3-3--3----|----3-3-3-3--3--3--3--3-----| 
|--0-0-0-0--0--0-0--0----|----0-0-0-0--0--0--0--0-----| 
|--0-0-0-0--0--0-0--0----|----0-0-0-0--0--0--0--0-----| 
|--0-0-0-0--0--0-0--0----|----0-0-0-0--0--0--0--0-----| 
|--2-2-2-2--2--2-2--2----|----2-2-2-2--2--2--2--2-----| 
|--3-3-3-3--3--3-3--3----|----3-3-3-3--3--3--3--3-----| 


   +S   E    S  Q    +S   E    S  +Q 
|-(20)-19-------------------------------| 
|--------------20---(20)----------------| 
|-----------19----------------19-(19)---| 
|------------------------21-------------| 
|---------------------------------------| 
|---------------------------------------| 
| 
|   E     Q       E  +Q            E  E 
|---------------------------------------| 
|---------------------------------------| 
|-----------------7--(7)----------------| 
|---4-----5------------------------4--5-| 
|---------------------------------------| 
|---------------------------------------| 
| 
|   E     E     E E   E     E      E  E 
|---3-----3-----3-3---3-----3------3--3-| 
|---0-----0-----0-0---0-----0------0--0-| 
|---0-----0-----0-0---0-----0------0--0-| 
|---0-----0-----0-0---0-----0------0--0-| 
|---2-----2-----2-2---2-----2------2--2-| 
|---3-----3-----3-3---3-----3------3--3-| 


                         2. 
                                  D.S. al Coda 
    W                       W 
|----------------------||----------------------|| 
|---------------------o||----------------------|| 
|----------------------||----------------------|| 
|----------------------||----------------------|| 
|---------------------o||----------------------|| 
|----------------------||----------------------|| 
| 
| a E Q   E +H            a E Q   E +H 
|----------------------||----------------------|| 
|---------------------o||----------------------|| 
|----------------------||----------------------|| 
|----------------------||----------------------|| 
|-5s7-5---5-(5)-------o||-5s7-5---5-(5)--------|| 
|----------------------||----------------------|| 
| 
|   E E E E  E  E E E       E E E E  E  E E E 
|---3-3-3-3--3--3-3-3--||---3-3-3-3--3--3-3-3--|| 
|---0-0-0-0--0--0-0-0-o||---0-0-0-0--0--0-0-0--|| 
|---0-0-0-0--0--0-0-0--||---0-0-0-0--0--0-0-0--|| 
|---0-0-0-0--0--0-0-0--||---0-0-0-0--0--0-0-0--|| 
|---2-2-2-2--2--2-2-2-o||---2-2-2-2--2--2-2-2--|| 
|---3-3-3-3--3--3-3-3--||---3-3-3-3--3--3-3-3--|| 


                        Bridge 
  & 
    G                    G        Dsus4 
  Gtr II 
  a E Q   E +H           Q.     E E Q   E 
|---------------------||-3------3-3-3---3-| 
|---------------------||-3------3-3-3---3-| 
|---------------------||-0------0-2-2---0-| 
|---------------------||------------------| 
|-5s7-5---5-(5)-------||------------------| 
|---------------------||------------------| 
| 
|   Gtr III 
|   E E E E  E  E E E    E  E E E E E E E 
|---3-3-3-3--3--3-3-3-||-3--3-3-3-3-3-3-3-| 
|---0-0-0-0--0--0-0-0-||-0--0-0-0-3-3-3-3-| 
|---0-0-0-0--0--0-0-0-||-0--0-0-0-2-2-2-2-| 
|---0-0-0-0--0--0-0-0-||-0--0-0-0-0-0-0-0-| 
|---2-2-2-2--2--2-2-2-||-2--2-2-2---------| 
|---3-3-3-3--3--3-3-3-||-3--3-3-3---------| 


  G         Dsus4     G        Dsus4 
  +E  Q   E Q   Q     Q.     E E Q   E 
|-(3)-3---3-3---3---|-3------3-3-3---3-| 
|-(3)-3---3-3---3---|-3------3-3-3---3-| 
|-(0)-0---0-2---2---|-0------0-2-2---0-| 
|-------------------|------------------| 
|-------------------|------------------| 
|-------------------|------------------| 
| 
|  E  E E E E E E E   E  E E E E E E E 
|--3--3-3-3-3-3-3-3-|-3--3-3-3-3-3-3-3-| 
|--0--0-0-0-3-3-3-3-|-0--0-0-0-3-3-3-3-| 
|--0--0-0-0-2-2-2-2-|-0--0-0-0-2-2-2-2-| 
|--0--0-0-0-0-0-0-0-|-0--0-0-0-0-0-0-0-| 
|--2--2-2-2---------|-2--2-2-2---------| 
|--3--3-3-3---------|-3--3-3-3---------| 


  G         Dsus4     G        Dsus4     G         Dsus4     G        Dsus4 
  +Q.     E E Q   E   Q.     E E Q   E   +E  Q   E Q   Q     Q.     E E Q   E 
|-(3)-----3-3-3---3-|-3------3-3-3---3-|-(3)-3---3-3---3---|-3------3-3-3---3-| 
|-(3)-----3-3-3---3-|-3------3-3-3---3-|-(3)-3---3-3---3---|-3------3-3-3---3-| 
|-(0)-----0-2-2---0-|-0------0-2-2---0-|-(0)-0---0-2---2---|-0------0-2-2---0-| 
|-------------------|------------------|-------------------|------------------| 
|-------------------|------------------|-------------------|------------------| 
|-------------------|------------------|-------------------|------------------| 
| 
|  E  E E E E E E E   E  E E E E E E E    E  E E E E E E E   E  E E E E E E E 
|--3--3-3-3-3-3-3-3-|-3--3-3-3-3-3-3-3-|--3--3-3-3-3-3-3-3-|-3--3-3-3-3-3-3-3-| 
|--0--0-0-0-3-3-3-3-|-0--0-0-0-3-3-3-3-|--0--0-0-0-3-3-3-3-|-0--0-0-0-3-3-3-3-| 
|--0--0-0-0-2-2-2-2-|-0--0-0-0-2-2-2-2-|--0--0-0-0-2-2-2-2-|-0--0-0-0-2-2-2-2-| 
|--0--0-0-0-0-0-0-0-|-0--0-0-0-0-0-0-0-|--0--0-0-0-0-0-0-0-|-0--0-0-0-0-0-0-0-| 
|--2--2-2-2---------|-2--2-2-2---------|--2--2-2-2---------|-2--2-2-2---------| 
|--3--3-3-3---------|-3--3-3-3---------|--3--3-3-3---------|-3--3-3-3---------| 


                      Interlude 
  G         Dsus4      G 
  +E  Q   E Q   Q      E Q   E +Q    E E 
|-(3)-3---3-3---3---||-------------------| 
|-(3)-3---3-3---3---||-------------------| 
|-(0)-0---0-2---2---||-------7-(7)-------| 
|-------------------||-4-5-----------4-5-| 
|-------------------||-------------------| 
|-------------------||-------------------| 
| 
|  E  E E E E E E E    E E E E  E  E E E 
|--3--3-3-3-3-3-3-3-||-3-3-3-3--3--3-3-3-| 
|--0--0-0-0-3-3-3-3-||-0-0-0-0--0--0-0-0-| 
|--0--0-0-0-2-2-2-2-||-0-0-0-0--0--0-0-0-| 
|--0--0-0-0-0-0-0-0-||-0-0-0-0--0--0-0-0-| 
|--2--2-2-2---------||-2-2-2-2--2--2-2-2-| 
|--3--3-3-3---------||-3-3-3-3--3--3-3-3-| 


                        Q=80 
  a E Q   E +H          E Q   E +H 
|---------------------|-------------------| 
|---------------------|-------------------| 
|---------------------|-------7-(7)-------| 
|---------------------|-4-5---------------| 
|-5s7-5---5-(5)-------|-------------------| 
|---------------------|-------------------| 
| 
|   E E E E  E  E E E   E E E E  E  E E E 
|---3-3-3-3--3--3-3-3-|-3-3-3-3--3--3-3-3-| 
|---0-0-0-0--0--0-0-0-|-0-0-0-0--0--0-0-0-| 
|---0-0-0-0--0--0-0-0-|-0-0-0-0--0--0-0-0-| 
|---0-0-0-0--0--0-0-0-|-0-0-0-0--0--0-0-0-| 
|---2-2-2-2--2--2-2-2-|-2-2-2-2--2--2-2-2-| 
|---3-3-3-3--3--3-3-3-|-3-3-3-3--3--3-3-3-| 


                         Outro 
  Q=66 
                          Bm7 
  Gtrs IV, V (Strings arr. for Gtr.) 
   H        E  E  E  E     H         +E   E  E  E 
|----------------------||----------------------14-| 
|----------------------||-------------------15----| 
|----------------------||-14--------(14)-16-------| 
|-------------14-16-17-||-------------------------| 
|----------------------||-------------------------| 
|----------------------||-------------------------| 
| 
| Gtr II 
| +W                       Q.     E  +H 
|----------------------||--7------7--(7)----------| 
|----------------------||--7------7--(7)----------| 
|-(7)------------------||--7------7--(7)----------| 
|----------------------||--7------7--(7)----------| 
|----------------------||--9------9--(9)----------| 
|----------------------||--7------7--(7)----------| 
| 
| Gtr III 
|  E  E E E E  E  E  E     E  E E E   E   E  E  E 
|--3--3-3-3-3--3--3--3-||--2--2-2-2---2---2--2--2-| 
|--0--0-0-0-0--0--0--0-||--3--3-3-3---3---3--3--3-| 
|--0--0-0-0-0--0--0--0-||--2--4-4-4---2---4--4--4-| 
|--0--0-0-0-0--0--0--0-||--4--4-4-4---4---4--4--4-| 
|--2--2-2-2-2--2--2--2-||--2--2-2-2---2---2--2--2-| 
|--3--3-3-3-3--3--3--3-||-------------------------| 


  Em7                         Bm7 
   E   S  S  H.                E   S  S  Q    +E   E  E  E 
|-15--14-15-----------------|--------------------------------| 
|-----------17--------------|-19--17-19-----------17-19------| 
|---------------------------|-----------19---(19)-------19---| 
|---------------------------|--------------------------------| 
|---------------------------|--------------------------------| 
|---------------------------|--------------------------------| 
| 
|  Q.           E +H           Q.          E  +H 
|--7------------7-(7)-------|--7-----------7--(7)------------| 
|--8------------8-(8)-------|--7-----------7--(7)------------| 
|--7------------7-(7)-------|--7-----------7--(7)------------| 
|--9------------9-(9)-------|--7-----------7--(7)------------| 
|--7------------7-(7)-------|--9-----------9--(9)------------| 
|---------------------------|--7-----------7--(7)------------| 
| 
|  E   E     E  E  E  E E E    E   E     E E   E   E  E  E 
|--0---0-----0--0--0--0-0-0-|--2---2-----2-2---2---2--2--2---| 
|--0---0-----0--0--0--0-0-0-|--3---3-----3-3---3---3--3--3---| 
|--0---0-----0--0--0--0-0-0-|--2---4-----4-4---2---4--4--4---| 
|--2---2-----2--2--2--2-2-2-|--4---4-----4-4---4---4--4--4---| 
|--2---2-----2--2--2--2-2-2-|--2---2-----2-2---2---2--2--2---| 
|--0---0-----0--0--0--0-0-0-|--------------------------------| 


  Em7                        Bm7 
   Q     E  E  E   E  E  E    H         +E   E  E  E 
|--------------------------|-------------------------| 
|--------------------------|----------------17-19----| 
|-16----14-16-----16-14----|-19--------(19)-------19-| 
|-------------17--------17-|-------------------------| 
|--------------------------|-------------------------| 
|--------------------------|-------------------------| 
| 
|  Q.       E +H              Q.     E  +H 
|--7--------7-(7)----------|--7------7--(7)----------| 
|--8--------8-(8)----------|--7------7--(7)----------| 
|--7--------7-(7)----------|--7------7--(7)----------| 
|--9--------9-(9)----------|--7------7--(7)----------| 
|--7--------7-(7)----------|--9------9--(9)----------| 
|--------------------------|--7------7--(7)----------| 
| 
|  E  E  E  E  E   E  E  E    E  E E E   E   E  E  E 
|--0--0--0--0--0---0--0--0-|--2--2-2-2---2---2--2--2-| 
|--0--0--0--0--0---0--0--0-|--3--3-3-3---3---3--3--3-| 
|--0--0--0--0--0---0--0--0-|--2--4-4-4---2---4--4--4-| 
|--2--2--2--2--2---2--2--2-|--4--4-4-4---4---4--4--4-| 
|--2--2--2--2--2---2--2--2-|--2--2-2-2---2---2--2--2-| 
|--0--0--0--0--0---0--0--0-|-------------------------| 


  Esus4              E 
                   Gtr VI (Harp arr. for Gtr.) 
   W                 E E E E H      +W 
|------------------|---------4----|-(4)----*| 
|------------------|-------5------|--------*| 
|-16---------------|-----4--------|--------*| 
|------------------|---6----------|--------*| 
|------------------|-7------------|--------*| 
|------------------|--------------|--------*| 
| 
|  W                 W              +W 
|--7---------------|-7------------|-(7)----*| 
|-10---------------|-9------------|-(9)----*| 
|--7---------------|-9------------|-(9)----*| 
|--9---------------|-9------------|-(9)----*| 
|--7---------------|-7------------|-(7)----*| 
|------------------|--------------|--------*| 
| 
|  E E E E E E E E   W              +W 
|--0-0-0-0-0-0-0-0-|-0------------|-(0)----*| 
|--0-0-0-0-0-0-0-0-|-0------------|-(0)----*| 
|--2-2-2-2-2-2-2-2-|-1------------|-(1)----*| 
|--2-2-2-2-2-2-2-2-|-2------------|-(2)----*| 
|--2-2-2-2-2-2-2-2-|-2------------|-(2)----*| 
|--0-0-0-0-0-0-0-0-|-0------------|-(0)----*|  
	  

Search Paypal
auto scroll beats size up size down change color hide chords drawings
tab show chords e-chords YouTube Clip e-chords hide all tabs e-chords go to top tab