Papas da Língua

Eu sei

Papas da Língua

tabs Beginner beginner

by  JOHANES

save to print version add songbook text version e-mail correct tuner
chordsukulelecavacokeyboardtabbassdrumsharmonicaflute Guitar Pro
close

there isn't a video lesson for this song

chords

Eu sei

Year: 2000 - Album: Babybum

	  		Tom: G 
  
INTRO: 
   C          G        Em    D  Dsus4 D        C          G        Em    D  Dsus4 D 
|--0----------3--3--x--0-0-0-2--3--3--2--2--|--0----------3--3--x--0-0-0-2--3--3--2--2--| 
|--1----------3--3--x--0-0-0-3--3--3--3--3--|--1----------3--3--x--0-0-0-3--3--3--3--3--| 
|--0----------0--0--0--0-0-0-2--2--2--2--2--|--0----------0--0--0--0-0-0-2--2--2--2--2--| 
|--2----------0--0--0--2-2-2-0--0--0--0--0--|--2----------0--0--0--2-2-2-0--0--0--0--0--| 
|--3---3-2-0--2--2--0--2-2-2-x--x--x--x--x--|--3---3-2-0--2--2--0--2-2-2-x--x--x--x--x--| 
|--x----------3--3--0--0-0-0-x--x--x--x--x--|--x----------3--3--0--0-0-0-x--x--x--x--x--| 


C    G    Em              D  Dsus4  D 
 Eu sei, tudo pode acontecer 
C    G    Em                   D   Dsus4  D 
 Eu sei, nosso amor não vai morrer 

      Em      Bm    C           G 
Vou pedir aos céus você aqui comigo 
      Em      Bm   C                 D   Dsus4  D 
Vou jogar no mar flores pra te encontrar 

C     G     Em              D    Dsus4  D 
 Não sei porque você disse adeus 
C     G     Em                D  Dsus4  D 
 Guardei o beijo que você me deu 

      Em      Bm    C           G 
Vou pedir aos céus você aqui comigo 
      Em      Bm   C                 D   Dsus4  D 
Vou jogar no mar flores pra te encontrar 

C           G       Em       D  Dsus4  D 
You say goodbye and I say hello 
C           G       Em       D   Dsus4  D 
You say goodbye and I say hello          


Com vocalização 
   C          G        Em    D  Dsus4 D        C          G        Em    D  Dsus4 D 
|--0----------3--3--x--0-0-0-2--3--3--2--2--|--0----------3--3--x--0-0-0-2--3--3--2--2--| 
|--1----------3--3--x--0-0-0-3--3--3--3--3--|--1----------3--3--x--0-0-0-3--3--3--3--3--| 
|--0----------0--0--0--0-0-0-2--2--2--2--2--|--0----------0--0--0--0-0-0-2--2--2--2--2--| 
|--2----------0--0--0--2-2-2-0--0--0--0--0--|--2----------0--0--0--2-2-2-0--0--0--0--0--| 
|--3---3-2-0--2--2--0--2-2-2-x--x--x--x--x--|--3---3-2-0--2--2--0--2-2-2-x--x--x--x--x--| 
|--x----------3--3--0--0-0-0-x--x--x--x--x--|--x----------3--3--0--0-0-0-x--x--x--x--x--| 



C     G     Em              D    Dsus4  D 
 Não sei porque você disse adeus, não sei 
C     G     Em                D  Dsus4  D 
 Guardei o beijo que você me deu 

      Em      Bm    C           G 
Vou pedir aos céus você aqui comigo 
      Em      Bm   C                 D   Dsus4  D 
Vou jogar no mar flores pra te encontrar 

C           G       Em       D  Dsus4  D 
You say goodbye and I say hello 
C           G       Em       D   Dsus4  D 
You say goodbye and I say hello          

C G Em D Dsus4 D  

   C          G        Em    D  Dsus4 D        C          G 
|--0----------3--3--x--0-0-0-2--3--3--2--2--|--0----------3--| 
|--1----------0--0--x--0-0-0-3--3--3--3--3--|--1----------0--| 
|--0----------0--0--0--0-0-0-2--2--2--2--2--|--0----------0--| 
|--2----------0--0--0--2-2-2-0--0--0--0--0--|--2----------0--| 
|--3---3-2-0--2--2--0--2-2-2-x--x--x--x--x--|--3---3-2-0--2--| 
|--x----------3--3--0--0-0-0-x--x--x--x--x--|--x----------3--| 



		  

Full key step upFull key step up
Half key step upHalf key step up
Half key step downHalf key step down
Full key step downFull key step down
auto scroll beats size up size down change color hide chords drawings
tab show chords e-chords YouTube Clip e-chords hide all tabs e-chords go to top tab

share