Tom Jobim

Eu sei que vou te amar Tab

Tom Jobim

Difficulty: IntermediateIntermediate

by Acelot

tuner correct add songbook print version text version save to e-mail
chordsukuleleukulelecavacokeyboardtabbassdrumsharmonicsflute Guitar Pro
close

there isn't a video lesson for this song

chords

Eu sei que vou te amar

Year: 2005 - Album: Novo Millennium

(Tom Jobim / Vinícius de Moraes)

  		
Intro: F7M Em9 Dm Gsus4 G7/9b  

e|--------------------------------------------------|  
B|----------1----------1-------------0-----------0--|  
G|-------------2-------2----------------0--------0--|  
D|-------2--------2----2--------------------4----4--|  
A|---------------------------------2-------------2--|  
E|----1----------------1-------0-----------------0--|  
c|--------------------------------------------------|  

e|--------1----------1------------------------------------------|  
B|-----------3-------3------3--------------------1------------0-|  
G|-----2--------2----2---2-----2--------------------2---------1-|  
D|--0----------------0-----------------------3---------3------3-|  
A|--------------------------------------------------------------|  
E|--------------------------------------3---------------------3-|  
C|--------------------------------------------------------------|  

Parte 1:  

e|-----------------------------------------------------2-|  
B|---------0--0--0--0--0-------------------------------1-|  
G|----0----0-----------0--------2-0-2h0----------------2-|  
D|---------2-----------2------------------4--3--2--1-----|  
A|---------3-----------3---------------------------------|  
E|-------------------------------------------------------|  
C|-------------------------------------------------------|  

e|------------------------------------------------------|  
B|-------0--1--0------1--1--1--0--1----------1--------0-|  
G|----2-----------2---2-----------2--------------2----1-|  
D|--------------------0-----------0--------3----------3-|  
A|------------------------------------------------------|  
E|--------------------------------------3-------------3-|  
C|------------------------------------------------------|  

e|--------------------------------------------------------0-------|  
B|--0--1--3--1--0----3--3--3--3--3-----------3-----1--3-----3---1-|  
G|-------------------3------------------------3-------------------|  
D|-------------------3------------------------2-------------------|  
A|----------------------------------------3-----------------------|  
E|-------------------3--------------------------------------------|  
C|----------------------------------------------------------------|  

e|--------0--------0--0--0------0-|  
B|------------------------------1-|  
G|-------------2----------------1-|  
D|-----------2------------------0-|  
A|--------------------------------|  
E|-------2----------------------1-|  
C|--------------------------------|  



e|--0---3--------------------------------------1------------1----------|  
B|-------------1-----1--1---0------------------1------1-------1--------|  
G|----------0-----0-------------2-----2----2---2---2-----2-------2---0-|  
D|--------------------------1------1-----------0-----------------------|  
A|------3------------------------------------------------------------3-|  
E|---------------------------------------------------------------------|  
C|---------------------------------------------------------------------|  

e|---------------0----------------0------0--0---1----------1-|  
B|-------1---3--------------0-----0------------------------2-|  
G|-----------------------5--------5------------------0-----0-|  
D|---------------------5----------5----------------2---2---2-|  
A|------------------0-------------0--------------0---------0-|  
E|-----------------------------------------------------------|  
C|-----------------------------------------------------------|  

e|--0------------------------------------------------|  
B|-----3--3---------3------3-------4---------4-----4-|  
G|--------3------3--3---------------------4--------4-|  
D|--------0----0----0------------------3-----------3-|  
A|---------------------------------------------------|  
E|--------2---------2---------------3--------------3-|  
C|---------------------------------------------------|  


Coda:   

e|--------7--7--7--7---7-----------------------------------------|  
B|----8---8------------8-------8------------10---12---13--12--10-|  
G|--------9------------9----9---------------11---11--------------|  
D|---------------------------------------------------------------|  
A|---------------------------------------------------------------|  
E|--------8------------8--------------11-------------------------|  
C|---------------------------------------------------------------|  

e|---------------------------------------------0--|  
B|----8--------8---8----------8----------------2--|  
G|-------7--------------------7----------------0--|  
D|-------8--------------------8------------2------|  
A|-------7--------------------7--------0----------|  
E|-------0--------------------0-------------------|  
C|------------------------------------------------|  

e|--0--1--3--1--0---------------------------------------|  
B|-------------------2----------1--1--1---1-------------|  
G|---------------------------2------------2--------2----|  
D|----------------------------------------0-----0-----0-|  
A|------------------------------------------------------|  
E|----------------------2-----------------2-------------|  
C|------------------------------------------------------|  

e|-------------------------------------------------------|  
B|------1----0-----0---1---3---1---0----3-----3--------3-|  
G|------2----1--------------------------3-----3--------3-|  
D|------3----3--------------------------2-----2--------2-|  
A|--------------------------------------3---------3------|  
E|---3-------3-------------------------------------------|  
c|-------------------------------------------------------|  

e|--------------------------------------------------|  
B|----1----1--------1-----3------3------3---------1-|  
G|----2----2--------2-----3------3------3---------2-|  
D|----2----2--------2-----2------2------2---------2-|  
A|------------------------3----------3--------------|  
E|----1--------1----------------------------------1-|  
C|--------------------------------------------------|  

e|----------0--------|  
B|---1------0------0-|  
G|---2------1------2-|  
D|---3------3------2-|  
A|-----------------3-|  
E|---3------3------3-|  
C|-------------------|  

	  

Full key step upFull key step up
Half key step upHalf key step up
Half key step downHalf key step down
Full key step downFull key step down
auto scroll beats size up size down change color hide chords drawings
tab show chords e-chords YouTube Clip e-chords hide all tabs e-chords go to top tab

share with facebook

Search Paypal