Ouran Host Club

Shissou(tv Size)

Ouran Host Club

tabs Beginner beginner

by  PAULLET3

save to print version add songbook text version e-mail correct tuner
chordsukulelecavacokeyboardtabbassdrumsharmonicaflute Guitar Pro
close

there isn't a video lesson for this song

chords

Shissou(tv Size)

	  		Intro 

E|-------------------------------- 
B|-------------------------------- 
G|-------------------------------- 
D|-7--6-----4---7--6-----4-------- 
A|-5--4--4--2---5--4--4--2-------- 
E|-------2------------2----------- 

1st verse 

E|------------------------------------------------------- 
B|------------------------------------------------------- 
G|------------------------------------------------------- 
D|----7--9-----------6--7--9------7--9---7----------6-7-9 
A|-7--5--7--7--6--4--4--5--7---7--5--7-7-5-9--7-6-4-4-5-7 
E|-5--------5--4--2------------5-------5---7--5-4-2------ 

Bridge? 

E|------------------------------- 
B|------------------------------- 
G|------------------------------- 
D|-7----6--------7-7--9---------- 
A|-5-7--4--4--2--5-5--7---------- 
E|---5-----2--0------------------ 

Chorus 

E|------------------------------------------------- 
B|------------------------------------------------- 
G|------------------------------------------------- 
D|-7--6-----4--7--9-----7--9-----7--6--------7--9-- 
A|-5--4--4--2--5--7--7--5--7--7--5--4--4--2--5--7-7 
E|-------2-----------5--------5--------2--0-------5 


Se tiver algum erro corijam XD 
		  

See also:

tabs Ryan Cabrera - True (ver. 2) tabs Hilary Duff - Come Clean tabs My Chemical Romance - I Don't Love You tabs Maroon 5 - Harder To Breathe tabs Ashlee Simpson - La la tabs Drake bell - Makes Me Happy
e-chords

Other versions:

tabs Ouran Host Club - Shissou(tv Size)
auto scroll beats size up size down change color hide chords drawings
tab show chords e-chords YouTube Clip e-chords hide all tabs e-chords go to top tab

share