Michael Jackson

home > Michael Jackson

Beat it Tab

Michael Jackson

Difficulty: ExpertExpert

by drummer%5Fcometh

tuner correct add songbook print version text version save to e-mail
chordsukulelecavacokeyboardtabbassdrummharmonicsflute Guitar Pro
chords

Beat it

Year: 1982 - Album: Thriller

(Michael Jackson)

	  Riff principal: 

e|------------------------------------| 
B|------------------------------------| 
G|------------------------------------| 
D|-------5-2-4-2-0-0--------5-4-2-2-0-| 
A|-----2------------------2-----------| 
E|-0-3----------------0-3-------------| (4x) 

e|--------------------------------------------| 
B|------12----12---------------10----10-------| 
G|------12----12---------------11----11-------| 
D|14-14----14----14~~\---12-12----12----12~~\-| 
A|--------------------------------------------| 
E|--------------------------------------------| 

Verses: E5 D5 C5 

Solo: 

e|------------------------------------------| 
B|-------12----12-------------12----12------| 
G|-------12----12-------------12----12------| 
D|-14-14----14----14~~--14-14----14----14~~\| 
A|------------------------------------------| 
E|------------------------------------------| 

e|-----------------------------------| 
B|-----------------------------------| 
G|(a1)h4-4/7-(hn)14-h9-(hn)14-(9~~)--| 
D|-----------------------------------| 
A|-----------------------------------| 
E|-----------------------------------| 

e|-15t10h14-15t14p12p10h14-15t14p12p10h14-15t14p12p10-| 
B|----------------------------------------------------| 
G|----------------------------------------------------| 
D|----------------------------------------------------| 
A|----------------------------------------------------| 
E|----------------------------------------------------| 

e|-------------------------------------| 
B|h14-15t14p12p10p15t14p12p10h12h13p12-| 
G|-------------------------------------| 
D|-------------------------------------| 
A|-------------------------------------| 
E|-------------------------------------| 

e|----------12h15h19p15p12h14p12-------------| 
B|-12h15h19----------------------19p15p12h15-| 
G|-------------------------------------------| 
D|-------------------------------------------| 
A|-------------------------------------------| 
E|-------------------------------------------| 

e|-12--------------12----------| 
B|----19p15p12h15----19p15p12--| 
G|-----------------------------| 
D|-----------------------------| 
A|-----------------------------| 
E|-----------------------------| 

e|----------------------------------------------------| 
B|-------------15b17r15p12h15-16t/--------------------| 
G|-14b16r14r12---------------------14b16r14p12p0(al)--| 
D|----------------------------------------------------| 
A|----------------------------------------------------| 
E|----------------------------------------------------| 

e|-----------------------|-----------|----------------------12-----| 
B|-----------------------|(al)5p3p0--|-------------------12----12--| 
G|-9b11r9p7(al)h9(al)p7--|-----------|x4--2b4(ha)~~-/14------------| 
D|-----------------------|-----------|-----------------------------| 
A|-----------------------|-----------|-----------------------------| 
E|-----------------------|-----------|-----------------------------| 

e|-15b17-15-12-------------------|-15t8h12---------| 
B|-------------------------------|---------15t8h13-| 
G|-------------14b16r14p12-14~~\-|-----------------| 
D|-------------------------------|-----------------| 
A|-------------------------------|-----------------| 
E|-------------------------------|-----------------| 
                                  (3x) 

e|-17t10-17t10-17t10-12----14-14-14-14-15-15-15-15-17-1-17-17-| 
B|-------------------15b17------------------------------------| 
G|------------------------------------------------------------| 
D|------------------------------------------------------------| 
A|------------------------------------------------------------| 
E|------------------------------------------------------------| 

e|-19-19-19-19-22-22-22-22--22b24---| 
B|----------------------------------| 
G|----------------------------------| 
D|----------------------------------| 
A|--------------------------------\-| 
E|--------------------------------\-| 

	  

beat-it-by-michael-jackson Play

there is a video lesson for this song

view more
Full key step upFull key step up
Half key step upHalf key step up
Half key step downHalf key step down
Full key step downFull key step down
Search
auto scroll beats size up size down change color hide chords drawings
tab show chords e-chords YouTube Clip e-chords hide all tabs e-chords go to top tab