Michael Jackson

home > Michael Jackson

Beat it Bass Tab

Michael Jackson

Difficulty: BeginnerBeginner

tuner correct add songbook print version text version save to e-mail
chordsukulelecavacokeyboardtabbassdrummharmonicsflute Guitar Pro
chords

Beat it

Year: 1982 - Album: Thriller

(Michael Jackson)

	  
Main Riff   
Gb|------------------------------------------|   
Db|-------5-2--2h4-2------------5-2--2h4-2---|   
Ab|-----2------------5-5------2------------5-|   
Eb|-0-3-------------------0-3----------------|   

Verse:   

Gb|----------------------------------------------------------|   
Db|----------------------------------------------------------|   
Ab|-7-7-7--5-5-5--7-7-7--5-5-5--3-3-3--5-5-5---7-7-7--5-5-5--|   
Eb|----------------------------------------------------------|   

Bridge:   

Gb|-----------------------------------------------------------|   
Db|-----------------------------------------------------------|   
Ab|-----------------------------------------------------------|  
Eb|-0-0-0--0-0-0--0-0-0--0-0-0--0-0-0--0-0-0-0--0-0-0--0-0-0--|  

Solo:   

Gb|-----------------------------------------------|   
Db|-----------------------------------------------|   
Ab|-7-7--7--5-5--5--7-7--7--5-5--5-3-3--3--5-5--5-|   
Eb|-----------------------------------------------|   



	  

there isn't a video lesson for this song

request
Search
auto scroll beats size up size down change color hide chords drawings
tab show chords e-chords YouTube Clip e-chords hide all tabs e-chords go to top tab