Os Cavaleiros do Zodíaco

home > Os Cavaleiros do Z...

Pegasus Fantasy Tab

Os Cavaleiros do Zodíaco

Difficulty: nolevelnolevel

by jessgomes

tuner correct add songbook print version text version save to e-mail
chordsukulelecavacokeyboardtabbassdrumsharmonicsflute Guitar Pro
chords

Pegasus Fantasy

  		  Intro: C#m                     G                                 C#m                             Ab 
E|----------------3------------------------------------------------------3------------------------4---------------------------- 
B|------------4-----6--4---------------4-3----------------------4--------6---4------------------------------------------------- 
G|--------5----------------5-------5-------------0--0------5-------------------------5----------------------------------------- 
D|-----------------------------6----------------------------------------------------------------------------------------------- 
A|----------------------------------------------------------------------------------------------------------------------------- 
E|----------------------------------------------------------------------------------------------------------------------------- 
                       Cm                           G             Ab       Bb        Eb      G          Eb              Faça elevar   O cosmo no seu coração     Todo mal,combater,despertar o poder! 
E|----------------------------------------------------------------------------------------------------------------------------- 
B|----------------------------------------------------------------------------------------------------------------------------- 
G|----------------------------------------------------------------------------------------------------------------------------- 
D|--------2-3--5-5-3---3-2---3-2----5---------------2--------2-3--2-3-5-5-5-4-------------------------------------------------- 
A|---3-5---------------------------------------3-5-------5--------------------------------------------------------------------- 
E|----------------------------------------------------------------------------------------------------------------------------- 

                 Cm                   G          Ab                    Bb           Cm 
    Sua constelação    Sempre irá te proteger    Supera a dor e dá forças pra lutar 
E|----------------------------------------------------------------------------------------------------------------------------- 
B|----------------------------------------------------------------------------------------------------------------------------- 
G|----------------------------------------------------------------------------------------------------------------------------- 
D|------2---3-5----5---3--3--2-3--2--------------2--------2-5-----2------------------------------------------------------------ 
A|-3-5---------------------------------------5-----3-5---5-3---------------55--2--3-------------------------------------------- 
E|----------------------------------------------------------------------------------------------------------------------------- 

     Ab        Bb                        Eb  D  Cm     Ab           Bb                        G 
    Pegasus Fantasy    Desejos a realizar       Pois a asas de um coração sonhador   Ninguém irá roubar 
E|----------------------------------------------------------------------------------------------------------------------------- 
B|----------------------------------------------------------------------------------------------------------------------------- 
G|-22-----------------------------4-2------------------------------------------------------------------------------------------ 
D|-----55-3--5-3-3-------------------5-3-2--------------2--------2---------3---2-----3----------------------------------------- 
A|-------------------------2---2--------------------3---5----5-3-----3-5----------5--------2-2-2-2-2--3--3/5------------------- 
E|----------------------------------------------------------------------------------------------------------------------------- 

               Cm                  Ab                   Bb                Eb         G 
    Saint Seiya !  Guerreiro das estrelas        Saint Seiya !   Nada a temer   Oh! yeah 
E|----------------------------------------------------------------------------------------------------------------------------- 
B|----------------------------------------------------------------------------------------------------------------------------- 
G|---------------------------------------------------------------4---2--------------------------------------------------------- 
D|---2-3---5-----5-5-3------------5-----------------2---3----------------5-3-5---2-3--5---------------------------------------- 
A|-----------------------------2----5--3-----------------5--------------------------------------------------------------------- 
E|----------------------------------------------------------------------------------------------------------------------------- 

     Cm                             Ab                  Bb                       Cm     Ab    Bb     Cm Cm Cm 
     Saint Seiya !  Unidos por sua  forças       Saint Seiya !   Pegasus, Até vencer !  é é é é é ! 
E|------------------------------------------------------------------------------------------------------------------------------ 
B|------------------------------------------------------------------------------------------------------------------------------ 
G|-------------------------------------------------------------------------------2---------------2----------------2------------- 
D|--2----3----5----3-5-3-2-------------5--------------2-3---------2-3-----5-3-5--------5-------------5-5------------------------ 
A|----------------------------------5---2-----------5----------------5---------------------------------------------------------- 
E|------------------------------------------------------------------------------------------------------------------------------ 
	  

Full key step upFull key step up
Half key step upHalf key step up
Half key step downHalf key step down
Full key step downFull key step down
Search Paypal
auto scroll beats size up size down change color hide chords drawings
tab show chords e-chords YouTube Clip e-chords hide all tabs e-chords go to top tab