Angra

Pegasus Fantasy

Angra

tabs

by  TEUSALVES

save to print version add songbook text version e-mail correct tuner
chordsukulelecavacokeyboardtabbassdrumsharmonicaflute Guitar Pro
close

there isn't a video lesson for this song

chords

Pegasus Fantasy

	  		Intro 

   
|----------------------------------------------------------------| 
|----------------------------------------------------------------| 
|------12-10-------------8-7------------12-10-------13-----------| 
|---13-------12-------10-----8-------13-------12-----------------| 
|15-------------13-11----------10-15-------------13--------------| 
|----------------------------------------------------------------| 

Parte A 

|----------------------------------------------------------------| 
|----------------------------------------------------------------| 
|------8-10 10/12--10/12-10-10-8-10-8-7--5-7-8-7-8-10------------| 
|10-10-----------------------------------------------------------| 
|----------------------------------------------------------------| 
|----------------------------------------------------------------| 

|----------------------------------------------------------------| 
|----------------11----------------------------------------------| 
|----10/12-10-12-------------------------------------------------| 
|8-8-------------------------------------------------------------| 
|----------------------------------------------------------------| 
|----------------------------------------------------------------| 

|----------------------------------------------------------------| 
|----------------------------------------------------------------| 
|------8-10 10/12--10/12-10-10-8-10-8-7--5-7-8-7-5-8-8-8/12------| 
|10-10-----------------------------------------------------------| 
|----------------------------------------------------------------| 
|----------------------------------------------------------------| 


|----------------------------------------------------------------| 
|----------------------------------------------------------------| 
|8/12-10-7-5-3-hn5-----------------------------------------------| 
|----------------------------------------------------------------| 
|----------------------------------------------------------------| 
|----------------------------------------------------------------| 


Parte B 

|----------------------------------------------------------------| 
|9-8-8----8--------------9/11-9-8--------------------------------| 
|------10---10-10-----------------10-8---------------------------| 
|-----------------8-8-8------------------------------------------| 
|----------------------------------------------------------------| 
|----------------------------------------------------------------| 

|----------------------------------------------------------------| 
|----------------------------------------------------------------| 
|5-7-8-7-5--8-7-5-10-8-7-10--------------------------------------| 
|---------------------------8-8-9-10-12~-------------------------| 
|----------------------------------------------------------------| 
|----------------------------------------------------------------| 


Refrao 

|----------------------------------------------------------------| 
|--------------------------------------9/11-9-8------------------| 
|---8-12-10/12-10-8-7-5-10b12-----7-10~---------10-10/12-8-10-12~| 
|10-----------------------------8--------------------------------| 
|----------------------------------------------------------------| 
|----------------------------------------------------------------| 

|----------------------------------------------------------------| 
|----------------------------------------------9-8---------------| 
|---8-12-10/12-10-8-7-5-10b12-----7-10----7-10-----10~-8~--------| 
|10-----------------------------8-------8------------------------| 
|----------------------------------------------------------------| 
|----------------------------------------------------------------| 


Riff Gtr 1 
|----------------------------------------------------------------| 
|----------------------------------------------------------------| 
|---7-8-----7-8-7-----7-8----7-8-8/10----------------------------| 
|10------10--------10-----10-------------------------------------| 
|----------------------------------------------------------------| 
|----------------------------------------------------------------| 

Riff Gtr 2 
|----------------------------------------------------------------| 
|------------------------------------11--------------------------| 
|8-10-12-8-10-12-10--8-10-12-8-10-12-----------------------------| 
|----------------------------------------------------------------| 
|----------------------------------------------------------------| 
|----------------------------------------------------------------| 

Solo Guitarra 

|--------------------------13-15-16/20-22b23-22b23r22p20h22------| 
|11b13------------13-15-16---------------------------------------| 
|------10-12-13-15-----------------------------------------------| 
|----------------------------------------------------------------| 
|----------------------------------------------------------------| 
|----------------------------------------------------------------| 

|18b20-15-15-20-20-----------------------------------------------| 
|-----------------------20-20------------------------------------| 
|-----------------17-17-----------20-20--15-15-------------------| 
|----------------------------17-17-------------------------------| 
|----------------------------------------------------------------| 
|----------------------------------------------------------------| 

|----------------------------------------------------------------| 
|15-15h16p15----15h16p15----15h16p15----15-----------------------| 
|------------17----------17----------17--------------------------| 
|----------------------------------------------------------------| 
|----------------------------------------------------------------| 
|----------------------------------------------------------------| 

2x 
|11p8---8-10p8---8-13p8---8-11p8---8-----------------------------| 
|-----8--------8--------8--------8-------------------------------| 
|----------------------------------------------------------------| 
|----------------------------------------------------------------| 
|----------------------------------------------------------------| 
|----------------------------------------------------------------| 

2x 
|10p6---6--8p6---6-11p6---6-10p6---6-----------------------------| 
|-----6--------6--------6--------6-------------------------------| 
|----------------------------------------------------------------| 
|----------------------------------------------------------------| 
|----------------------------------------------------------------| 
|----------------------------------------------------------------| 

|8p4-4--6p4-4-10p4-4-10p4---4------------------------------------| 
|---4------4------4-------4--------------------------------------| 
|----------------------------------------------------------------| 
|----------------------------------------------------------------| 
|----------------------------------------------------------------| 
|----------------------------------------------------------------| 

|10p6---6--8p6---6-11p6---6-10p6---6-----------------------------| 
|-----6--------6--------6--------6-------------------------------| 
|----------------------------------------------------------------| 
|----------------------------------------------------------------| 
|----------------------------------------------------------------| 
|----------------------------------------------------------------| 

|-----------15h18h20h22h24tp22p20p18p15----15--------------------| 
|---------16----------------------------18----18b20--------------| 
|-------17-------------------------------------------------------| 
|-----17---------------------------------------------------------| 
|15h18-----------------------------------------------------------| 
|----------------------------------------------------------------| 


Tema de Cavaleiro do Zodíaco 
		  

See also:

tabs Angra - Time tabs Shaaman - Fairy Tale tabs Viper - A Cry From The Edge tabs Angra - Wuthering Heights tabs Angra - Cavaleiros do Zodiaco tabs Angra - Late Redemption (solo)
e-chords

Other versions:

tabs Seriados e Desenhos - pegasus fantasy tabs Angra - Pegasus Fantasy tabs Os Cavaleiros do Zodíaco - Pegasus Fantasy
auto scroll beats size up size down change color hide chords drawings
tab show chords e-chords YouTube Clip e-chords hide all tabs e-chords go to top tab

share