Oficina G3

A Lição

Oficina G3

tabs Advanced advanced

by  FABRICIO_AFRAM

save to print version add songbook text version e-mail correct tuner
chordsukulelecavacokeyboardtabbassdrumsharmonicaflute Guitar Pro
close

there isn't a video lesson for this song

chords

A Lição

	  		E||------------------------|----------------------------| 
B||--16b---16----16b~------|--21b---21b---21~---14/-16--| 
G||------------------------|----------------------------| 
D||------------------------|----------------------------| 
A||------------------------|----------------------------| 
E||------------------------|----------------------------| 
 
 
                                                                           
--------------------------------|----------------------------------------| 
--13~-------13--18--13--16--14--|--13------------------------------------| 
--------15b---------------------|------15p13p12--------------------------| 
--------------------------------|---------------15p13p11----11h13--------| 
--------------------------------|------------------------15-------15a.h--| 
--------------------------------|----------------------------------------| 
 
 
                                                                                 
--------------------------13h-15h-16~---|--16--15--13--------------16-------18-| 
-----------------13h-14h-16-------------|--------------16~---13h14----14h16----| 
--------12h-13h-15----------------------|--------------------------------------| 
--13h-15--------------------------------|--------------------------------------| 
----------------------------------------|--------------------------------------| 
----------------------------------------|--------------------------------------| 
 
 
                         
-----18~-18b-18--18b~-|| 
--16------------------|| 
----------------------|| 
----------------------|| 
----------------------|| 
----------------------|| 
 

		  

See also:

tabs Oficina G3 - A Lição tabs Atmosfera de Adoração - Aleluia tabs Fernanda Brum - Espírto Santo tabs Aline Barros - sonda-me, usa-me tabs Lázaro - Eu Te Amo Tanto tabs Oficina G3 - A Lição (versão detalhada)
e-chords

Other versions:

tabs Oficina G3 - A Lição tabs Oficina G3 - A Lição (ver. 2) tabs Oficina G3 - A Lição (versão detalhada)
auto scroll beats size up size down change color hide chords drawings
tab show chords e-chords YouTube Clip e-chords hide all tabs e-chords go to top tab

share