Oficina G3

A Lição (versão detalhada)

Oficina G3

tabs Expert expert

by  GABRIEL AFRAM

save to print version add songbook text version e-mail correct tuner
chordsukulelecavacokeyboardtabbassdrumsharmonicaflute Guitar Pro
close

there isn't a video lesson for this song

chords

A Lição (versão detalhada)

	  		Intro:   
 
(Riff 1) 
 
E|----0-------------------------------------| 
B|-------0---------5-----0------------------| 
G|------------5--4---4-------5----4--6--4---|  2x 
D|----2------------------------7------------| 
A|------------3-----------------------------| 
E|-----------------------5------------------| 
 
 
(Riff 2) 
             
      PM......................            PM 
E|------------------------------------------| 
B|------------------------------------------| 
G|-------------5-5-5--5--5-5---2~----2--2---| 
D|---2-2-2-2---5-5-5--5--5-5---2~----2--2---| 
A|---2-2-2-2---3-3-3--3--3-3---0~----0--0---| 
E|---0-0-0-0--------------------------------| 
 
 
 
(Riff 1) 
Você nos ensinou sobre o amor 
Nos mostrou como sermos irmãos 
Mas as histórias continuam as mesmas 
                               F 
Parece que não aprendemos a lição    
 
Repete a intro. 
 
 (Riff 2) 
Você nos ensinou sobre o amor 
Nos mostrou como sermos irmãos 
Mas as histórias continuam as mesmas 
                               F 
Parece que não aprendemos a lição    
 
F                                    Em 
É sempre um beijo que antecede a traição 
 
                H.A.            H.A 
E|-----------------------------------| 
B|-----------------------------------| 
G|---------------4---------------5---| 
D|---2--2-2--2-------2--2-2--2-------| 
A|---2--2-2--2-------2--2-2--2-------| 
E|---0--0-0--0-------0--0-0--0-------| 
 
F 
E, no final, sempre todos lavam as mãos 
 
Am              F              C          G 
Deus! Temos que aprender o que é o amor a cada dia 
Am      F            C         G 
Não deixar morrer em nós a tua poesia 
 
(Riff 1) 
Todos conhecem a nossa retórica 
Ninguém nos vê colocá-la em prática 
(Riff 2) 
Ao ver a oportunidade surgir,  
De lavar os pés, retemos nossas mãos 
F                                 Em 
É sempre a morte que refresca a memória 
 
                H.A.            H.A 
E|-----------------------------------| 
B|-----------------------------------| 
G|---------------4---------------5---| 
D|---2--2-2--2-------2--2-2--2-------| 
A|---2--2-2--2-------2--2-2--2-------| 
E|---0--0-0--0-------0--0-0--0-------| 
 
F     
E, no final, só nos restam lagrimas vãs 
 
Am              F              C          G 
Deus! Temos que aprender o que é o amor a cada dia 
Am      F            C         G 
Não deixar morrer em nós a tua poesia 
 
   F        G            Am           
Será que o sacrifício valeu 
          Em      F 
Só pra trazer emoções  
             G         Em 
Enquanto as lagrimas caírem 
       D                       
E não tocarem o coração 
 
Solo:  (Am F C G ) 
 
Am              F              C          G 
Deus! Temos que aprender o que é o amor a cada dia 
Am      F            C         G 
Não deixar morrer em nós a tua poesia 
 
Intro:   
 
(Riff 1) 
 
E|----0-------------------------------------| 
B|-------0---------5-----0------------------| 
G|------------5--4---4-------5----4--6--4---|  2x 
D|----2------------------------7------------| 
A|------------3-----------------------------| 
E|-----------------------5------------------| 
 
 
(Riff 2) 
             
      PM......................            PM 
E|------------------------------------------| 
B|------------------------------------------| 
G|-------------5-5-5--5--5-5---2~----2--2---| 
D|---2-2-2-2---5-5-5--5--5-5---2~----2--2---| 
A|---2-2-2-2---3-3-3--3--3-3---0~----0--0---| 
E|---0-0-0-0--------------------------------| 
 
 
 
(Riff 1) 
Você nos ensinou sobre o amor 
Nos mostrou como sermos irmãos 
Mas as histórias continuam as mesmas 
                               F 
Parece que não aprendemos a lição    
 
Repete a intro. 
 
 (Riff 2) 
Você nos ensinou sobre o amor 
Nos mostrou como sermos irmãos 
Mas as histórias continuam as mesmas 
                               F 
Parece que não aprendemos a lição    
 
F                                    Em 
É sempre um beijo que antecede a traição 
 
                H.A.            H.A 
E|-----------------------------------| 
B|-----------------------------------| 
G|---------------4---------------5---| 
D|---2--2-2--2-------2--2-2--2-------| 
A|---2--2-2--2-------2--2-2--2-------| 
E|---0--0-0--0-------0--0-0--0-------| 
 
F 
E, no final, sempre todos lavam as mãos 
 
Am              F              C          G 
Deus! Temos que aprender o que é o amor a cada dia 
Am      F            C         G 
Não deixar morrer em nós a tua poesia 
 
(Riff 1) 
Todos conhecem a nossa retórica 
Ninguém nos vê colocá-la em prática 
(Riff 2) 
Ao ver a oportunidade surgir,  
De lavar os pés, retemos nossas mãos 
F                                 Em 
É sempre a morte que refresca a memória 
 
                H.A.            H.A 
E|-----------------------------------| 
B|-----------------------------------| 
G|---------------4---------------5---| 
D|---2--2-2--2-------2--2-2--2-------| 
A|---2--2-2--2-------2--2-2--2-------| 
E|---0--0-0--0-------0--0-0--0-------| 
 
F     
E, no final, só nos restam lagrimas vãs 
 
Am              F              C          G 
Deus! Temos que aprender o que é o amor a cada dia 
Am      F            C         G 
Não deixar morrer em nós a tua poesia 
 
   F        G            Am           
Será que o sacrifício valeu 
          Em      F 
Só pra trazer emoções  
             G         Em 
Enquanto as lagrimas caírem 
       D                       
E não tocarem o coração 
 
Solo:  (Am F C G ) 
 
Am              F              C          G 
Deus! Temos que aprender o que é o amor a cada dia 
Am      F            C         G 
Não deixar morrer em nós a tua poesia 
 
 

		  

Full key step upFull key step up
Half key step upHalf key step up
Half key step downHalf key step down
Full key step downFull key step down
hide glossary

See also:

tabs Oficina G3 - A Lição tabs Atmosfera de Adoração - Aleluia tabs Fernanda Brum - Espírto Santo tabs Aline Barros - sonda-me, usa-me tabs Lázaro - Eu Te Amo Tanto tabs Oficina G3 - A Lição (versão detalhada)
e-chords

Other versions:

tabs Oficina G3 - A Lição tabs Oficina G3 - A Lição (ver. 2) tabs Oficina G3 - A Lição (versão detalhada)
auto scroll beats size up size down change color hide chords drawings
tab show chords e-chords YouTube Clip e-chords hide all tabs e-chords go to top tab

share