Noir Désir

L Homme Presse

Noir Désir

tabs

by  CARLLUZ

save to print version add songbook text version e-mail correct tuner
chordsukulelecavacokeyboardtabbassdrumsharmonicaflute Guitar Pro
close

there isn't a video lesson for this song

chords

L Homme Presse

	  		Intro 

Guitar 1 

e--8-5----5------8-5----5-----8-5----5------8-5----5----| 
b-------8----8--------8----8-------8----8--------8----8-| 
g-------------------------------------------------------| 
d-------------------------------------------------------| 
a-------------------------------------------------------| 
e-------------------------------------------------------| 

Guitar 2 

e----------------------------------------------------------| 
b----------------------------------------------------------| 
g----------------------------------------------------------| 
d--7--7-7--7-7--7-7-7-10-7--7-7--7-7--7-7-7-10-7--7-7--7-7-| 
a--7--7-7--7-7--7-7-7-10-7--7-7--7-7--7-7-7-10-7--7-7--7-7-| 
e--5--5-5--5-5--5-5-5-8--5--5-5--5-5--5-5-5-8--5--5-5--5-5-| 

e---------------------------------| 
b---------------------------------| 
g---------------------------------| 
d-7-7-7-10-7--7-7--7-7--7-7-7-10--| 
a-7-7-7-10-7--7-7--7-7--7-7-7-10--| 
e-5-5-5-8--5--5-5--5-5--5-5-5-8---| 

Verse 

Guitar 2 

e----------------------------------------------------------| 
b----------------------------------------------------------| 
g----------------------------------------------------------| 
d--7--7-7--7-7--7-7-7-10-7--7-7--7-7--7-7-7-10-7--7-7--7-7-| 
a--7--7-7--7-7--7-7-7-10-7--7-7--7-7--7-7-7-10-7--7-7--7-7-| 
e--5--5-5--5-5--5-5-5-8--5--5-5--5-5--5-5-5-8--5--5-5--5-5-| 

e---------------------------------| 
b---------------------------------| 
g---------------------------------| 
d-7-7-7-10-7--7-7--7-7--7-7-7-10--| 
a-7-7-7-10-7--7-7--7-7--7-7-7-10--| 
e-5-5-5-8--5--5-5--5-5--5-5-5-8---| 

e----------------------------------------------------------| 
b----------------------------------------------------------| 
g----------------------------------------------------------| 
d--7--7-7--7-7--7-7-7-10-7--7-7--7-7--7-7-7-10-7--7-7--7-7-| 
a--7--7-7--7-7--7-7-7-10-7--7-7--7-7--7-7-7-10-7--7-7--7-7-| 
e--5--5-5--5-5--5-5-5-8--5--5-5--5-5--5-5-5-8--5--5-5--5-5-| 

e---------------------------------| 
b---------------------------------| 
g----------7--7-7--7-7--7-7--7-7--| 
d-7-7-7-10-7--7-7--7-7--7-7--7-7--| 
a-7-7-7-10-5--5-5--5-5--5-5--5-5--| 
e-5-5-5-8-------------------------| 

e----------------------------------------------------------| 
b----------------------------------------------------------| 
g---7-7--7-7--7-7------------------------------------------| 
d---7-7--7-7--7-7-7--7-7--7-7--7-7-7-10-7--7-7--7-7--7-7-7-| 
a---5-5--5-5--5-5-7--7-7--7-7--7-7-7-10-7--7-7--7-7--7-7-7-| 
e-----------------5--5--5-5--5-5-5-5-8--5--5-5--5-5--5-5-5-| 

e----------------------------------| 
a----------------------------------| 
g----------------------------------| 
d-10-7--7-7--7-7--7-7-7-10-7--7-7--| 
a-10-7--7-7--7-7--7-7-7-10-7--7-7--| 
e-8--5--5-5--5-5--5-5-5-8--5--5-5--| 

e----------------------------------------------------------| 
b----------------------------------------------------------| 
g----------------------------------------------------------| 
d--7-7--7-7-7-10-5-5-5-5-5-5-5-5-3-3-3-3-3-3-3-3-7--7-7--7-| 
a--7-7--7-7-7-10-5-5-5-5-5-5-5-5-3-3-3-3-3-3-3-3-7--7-7--7-| 
e--5-5--5-5-5-8--3-3-3-3-3-3-3-3-1-1-1-1-1-1-1-1-5--5-5--5-| 

e-----------------------------------| 
b-----------------------------------| 
g-----------------------------------| 
d-7--7-7-7-10-7--7-7--7-7--7-7-7-10-| 
a-7--7-7-7-10-7--7-7--7-7--7-7-7-10-| 
e-5--5-5-5-8--5--5-5--5-5--5-5-5-8--| 

Chorus 

Guitar 2 

e---------------------------------------------------------| 
b---------------------------------------------------------| 
g------------------5-5-5-5-5-5-5-5------------------------| 
d--7-7-7-7-7-7-7-7-5-5-5-5-5-5-5-5-5-5-5-5-5-5-5-5-7--7-7-| 
a--7-7-7-7-7-7-7-7-3-3-3-3-3-3-3-3-5-5-5-5-5-5-5-5-7--7-7-| 
e--5-5-5-5-5-5-5-5-----------------3-3-3-3-3-3-3-3-5--5-5-| 

e----------------------------------| 
b----------------------------------| 
g--------------------------5-5-5-5-| 
d-7-7--7-7-7-7-7-7-7-7-7-7-5-5-5-5-| 
a-7-7--7-7-7-7-7-7-7-7-7-7-3-3-3-3-| 
e-5-5--5-5-5-5-5-5-5-5-5-5---------| 


e--------------------------------------------| 
b--------------------------------------------| 
g--5-5-5-5-----------------------------------| 
d--5-5-5-5-5-5-5-5-5-5-5-5-5--7-7--7-7--7-7--| 
a--3-3-3-3-5-5-5-5-5-5-5-5-5--7-7--7-7--7-7--| 
e----------3-3-3-3-3-3-3-3-5--5-5--5-5--5-5--| 

Outro 

Guitar 1 

e-----------------------------------| 
b---------------9----9----10-10-12--| 
g--9-11-9-11-11---11---12-----------| 
d-----------------------------------| 
a-----------------------------------| 
e-----------------------------------| 
		  

auto scroll beats size up size down change color hide chords drawings
tab show chords e-chords YouTube Clip e-chords hide all tabs e-chords go to top tab

share