Yann Tiersen

home > Yann Tiersen

Lautre Valse Damelie Tab

Yann Tiersen

Difficulty: nolevelnolevel

by lucicamargo

tuner correct add songbook print version text version save to e-mail
chordsukulelecavacokeyboardtabbassdrumsharmonicsflute Guitar Pro
chords

Lautre Valse Damelie

	  
e|-----0-2-4-2----------0-2-4-2-0------------------------| 
B|---4---0-----0-0----4---0-----0--4-3----1----0----1----| 
G|---1---1-----1-1----1---1-----1-1---0-0--0-0--0-0--0-0-| 
D|-2---------2------2---------2-------2-2--2-2--2-2--2-2-| 
A|-----------------------------------3----3----3----3----| 
E|-------------------------------------------------------| 

e|-----0-2-4-2----------0-2-4-2-0------------------------| 
B|---4---0-----0-0----4---0-----0--4-3----1----0----1----| 
G|---1---1-----1-1----1---1-----1-1---0-0--0-0--0-0--0-0-| 
D|-2---------2------2---------2-------2-2--2-2--2-2--2-2-| 
A|-----------------------------------3----3----3----3----| 
E|-------------------------------------------------------| 

e|------------------------------------0-----| 
B|-4----5----7----9----0----1----3----------| 
G|--4-4--4-4--4-4--4-4--0-0--0-0--0-0--0-0--| 
D|--6-6--6-6--6-6--6-6--2-2--2-2--2-2--2-2--| 
A|-7----7----7----7----3----3----3----3-----| 
E|------------------------------------------| 

e|------------------------------------0-----| 
B|-4----5----7----9----0----1----3----------| 
G|--4-4--4-4--4-4--4-4--0-0--0-0--0-0--0-0--| 
D|--6-6--6-6--6-6--6-6--2-2--2-2--2-2--2-2--| 
A|-7----7----7----7----3----3----3----3-----| 
E|------------------------------------------| 

e|--0-0-0---0-0-0---0-0-0---0-0-0---0-0-0---0-0-0---0-0-0-------------| 
B|-4-4-4---2-2-2---0-0-0-----------3-3-3---1-1-1---0-0-0--1-----0-1-3-| 
G|---1-1-----1-1-----1-1---2-2-1-----------------------------0-2------| 
D|-2-------2-------2-------2---------2-2-----2-2-----2-2-------2--2---| 
A|---------------------------------3-------3-------3------3-----------| 
E|--------------------------------------------------------------------| 

e|--0-0-0---0-0-0---0-0-0---0-0-0---0-0-0---0-0-0------0--3-----------| 
B|-4-4-4---2-2-2---0-0-0-----------3-3-3---1-1-1---0-1----------0-1-3-| 
G|---1-1-----1-1-----1-1---2-2-1-----------------------------0-2------| 
D|-2-------2-------2-------2---------2-2-----2-2-----2-2-------2--2---| 
A|---------------------------------3-------3-------3------3-----------| 
E|--------------------------------------------------------------------| 

e|-----0-2-4-2----------0-2-4-2-0------------------------| 
B|---4---0-----0-0----4---0-----0--4-3----1----0----1----| 
G|---1---1-----1-1----1---1-----1-1---0-0--0-0--0-0--0-0-| 
D|-2---------2------2---------2-------2-2--2-2--2-2--2-2-| 
A|-----------------------------------3----3----3----3----| 
E|-------------------------------------------------------| 

e|-----0-2-4-2----------0-2-4-2-0------------------------| 
B|---4---0-----0-0----4---0-----0--4-3----1----0----1----| 
G|---1---1-----1-1----1---1-----1-1---0-0--0-0--0-0--0-0-| 
D|-2---------2------2---------2-------2-2--2-2--2-2--2-2-| 
A|-----------------------------------3----3----3----3----| 
E|-------------------------------------------------------| 

e|------------------------------------0-----| 
B|-4----5----7----9----0----1----3----------| 
G|--4-4--4-4--4-4--4-4--0-0--0-0--0-0--0-0--| 
D|--6-6--6-6--6-6--6-6--2-2--2-2--2-2--2-2--| 
A|-7----7----7----7----3----3----3----3-----| 
E|------------------------------------------| 

e|------------------------------------0-----| 
B|-4----5----7----9----0----1----3----------| 
G|--4-4--4-4--4-4--4-4--0-0--0-0--0-0--0-0--| 
D|--6-6--6-6--6-6--6-6--2-2--2-2--2-2--2-2--| 
A|-7----7----7----7----3----3----3----3-----| 
E|------------------------------------------| 

e|--0-0-0---0-0-0---0-0-0---0-0-0---0-0-0---0-0-0---0-0-0-------------| 
B|-4-4-4---2-2-2---0-0-0-----------3-3-3---1-1-1---0-0-0--1-----0-1-3-| 
G|---1-1-----1-1-----1-1---2-2-1-----------------------------0-2------| 
D|-2-------2-------2-------2---------2-2-----2-2-----2-2-------2--2---| 
A|---------------------------------3-------3-------3------3-----------| 
E|--------------------------------------------------------------------| 

e|--0-0-0---0-0-0---0-0-0---0-0-0---0-0-0---0-0-0------0--3-----------| 
B|-4-4-4---2-2-2---0-0-0-----------3-3-3---1-1-1---0-1----------0-1-3-| 
G|---1-1-----1-1-----1-1---2-2-1-----------------------------0-2------| 
D|-2-------2-------2-------2---------2-2-----2-2-----2-2-------2--2---| 
A|---------------------------------3-------3-------3------3-----------| 
E|--------------------------------------------------------------------| 

e|-----0-2-4-2----------0-2-4-2---0--0--| 
B|---4---0-----0-0----4---0-----0----4--| 
G|---1---1-----1-1----1---1-----1----1--| 
D|-2---------2------2---------2------2--| 
A|--------------------------------------| 
E|-----------------------------------0--| 
	  

there isn't a video lesson for this song

request
Search Paypal
auto scroll beats size up size down change color hide chords drawings
tab show chords e-chords YouTube Clip e-chords hide all tabs e-chords go to top tab