Nickel Creek

Pastures New

Nickel Creek

tabs Expert expert

save to print version add songbook text version e-mail correct tuner
chordsukulelecavacokeyboardtabbassdrumsharmonicaflute Guitar Pro
close

there isn't a video lesson for this song

chords

Pastures New

	  		By axehappy - [email protected] 
 
This one is really straightforward... 
Just play through the tab from start to finish! ;-) 
 
*********************************************************************** 
 
 
E--------------------------0-----0---0---0-------------------- 
B----------0------------0-3-----3---3---2---0-----------0----- 
G-------0-2-0--------0-2-------4---4---2---0-0-------0-2-0---- 
D----2h4-----4----2h4-----------------------------2h4-----4--- 
A---2------------2------------0---0---0---0------2------------ 
E--0------------0-------------------------------0------------- 
  
 
E-------------0-----0---0---0------0---------------------------- 
B----------0-3-----3---3---2---------3-0--------3----0---------- 
G-------0-2-------4---4---2---------------2p0-2-2-0--2---------- 
D----2h4----------------------------2----------0---2-2-0-0------ 
A---2------------0---0---0---0-----3-----2----------0---2------- 
E--0------------------------------------3----------------------- 
      
 
E--0--------------0----------------------------------------- 
B----3-0---------3-------------0-0-----------0-2-----0--0--- 
G---------2p0-2-2---1-2--2-0-2-------0---2---1-2-2---------- 
D---2----------0---0-2--0-------0-0--2---4-0-2-2--0---0--0-- 
A--3-----2---------------------------2---4------------------ 
E-------3--------------2---0-2-3-----0-0-2-------2--3--3---- 
 
 
E--------------0----------------------------------------------- 
B---------0-2h3--3-2----------0--0-----------0-0-2-----0--0---- 
G--0---2------------2-1-2--2--0------0---2---0-1-2-2----------- 
D--2-2-----------------2--0---0---0--2---4-0-0-2-2-0-0--0--0--- 
A--2------------0----0---------------2---4---------0----------- 
E--0--2--3---------------2--2-3-3----0-0-2------------3--3--3-- 
 
 
E-----------------------------------------------------------0-- 
B--------0-2-3---2-0-------4----------------0------------0-3--- 
G--0---3-------0-2-0-2----4---4----------0-2-0--------0-2------ 
D--2-2-------------------4---4-4------2h4-----4----2h4--------- 
A--2----------2--0------2---2--------2------------2------------ 
E--0--0-2----------3-2--------------0------------0------------- 
 
 
E-----0---0---0------------------------------0-----0---0---0--- 
B----3---3---2---0-----------0------------0-3-----3---3---2---- 
G---4---4---2---0-0-------0-2-0--------0-2-------4---4---2----- 
D----------------------2h4-----4----2h4------------------------ 
A--0---0---0---0------2------------2------------0---0---0---0-- 
E--------------------0------------0---------------------------- 
 
 
E--0---------------------------0--------------0------- 
B----3-0--------3----0-----------3-0---------3--3----- 
G---------2p0-2-2-0--2----------------2p0-2-2----2-0-- 
D---2-----0----0---2-2-0-0------2-----0----0---0------ 
A--3-----2----------0---2------3-----2---------------- 
E-------3---------------------------3----------------- 
 
 
E--0------------------------0--------------0------------------ 
B----3-0---------3---0--------3-0---------3------------0--0--- 
G---------2p0-2-2-0--2-------------2p0-2-2---1-2-2--2--0--0--- 
D---2-----0-----0--2-2-0-0---2-----0----0---0-2--0--0--------- 
A--3-----2------0---0---2---3-----2--------------------------- 
E-------3------------------------3---------------2-2-2-3-3-3-- 
 
 
E-------------------------------------0------------------- 
B----------0-2------0--0---------0-2h3--3-2---------0-0--- 
G--0---2---1-2-2-----------0---2-----------2-1-2--2-0-0--- 
D--2---4-0-2-2-0-0---0--0--2-2----------------2--0--0-0--- 
A--2---4-------------------2-----------0----0------------- 
E--0-0-2-------2---3--3----0--2-3---------------2--3-3-3-- 
 
 
E---------------------------------------------------------- 
B----------0-0-2-----0--0----------0-2-3---2-0------4---4-- 
G--0---2---0-1-2-2---0--0----0---3---3-4-0-2-0-2---4---4--- 
D--2---4-0-0-2-2-0-0--0--0---2-2---------------0--4---4---- 
A--2---4---------0-----------2----------2--0-----2---2----- 
E--0-0-2------------3--3--3--0--0-2----------3-2----------- 
 
 
E----------3-------------------3-----------------3--------- 
B-----3---3----------3----3---3-----3--0----3---3---3-1-0-- 
G----0---2------0---0----0---2-----0---0---0---2--0-2-0-0-- 
D---2---0------2---2----2---0---------0---2---0---2-0-2-2-- 
A--3----------2---3----3----------2----2-3--------2---3-2-- 
E------------0-------------------0---0------------0-------- 
 
 
E--------------------------0-----0---0---0------------------- 
B----------0------------0-3-----3---3---2---0-----------0---- 
G-------0-2-0--------0-2-------4---4---2---0-0-------0-2-0--- 
D----2-4-----4----2-4-----------------------------2-4-----4-- 
A---2------------2------------0---0---0---0------2----------- 
E--0------------0-------------------------------0------------ 
 
 
E-------------0-----0---0---0----0------------------------ 
B----------0-3-----3---3---2-------3-0--------3----0------ 
G-------0-2-------4---4---2-------------2p0-2-2-0--2------ 
D----2-4--------------------------2----------0---2-2-0-0-- 
A---2------------0---0---0---0---3-----2----------0---2--- 
E--0----------------------------------3------------------- 
 
 
E--0--------------0------0-0--3-3--2-2--0-0--3-3--3-3-----------| 
B----3-0---------3---3---1-1--0-0--3-3--0-0--3-3--3-3-----3-----| 
G---------2p0-2-2---2----0-0--0-0--2-2--0-0--0-0--0-0----2------| 
D---2----------0---0-----2-2--0-0--0-0--2-2--2-2--0-0---0-------| 
A--3-----2---------------3-3--2-2-------2-2--3-3--2-2--0--------| 
E-------3---------------------3-3-------0-0-------3-3-----------| 
		  

See also:

tabs Simpsons - The simpsons tabs Kenny Chesney - I Go Back tabs Alan Jackson - Chattahoochee Correct tabs Lonestar - Amazed tabs Alison Krauss - You Say Nothing At All tabs James Taylor - Youve Got A Friend (ver. 2)
e-chords

Other versions:

tabs Nickel Creek - Pastures New
auto scroll beats size up size down change color hide chords drawings
tab show chords e-chords YouTube Clip e-chords hide all tabs e-chords go to top tab

share