Crosby, Stills, Nash & Young

Suite Judy Blue Eyes Tab

Crosby, Stills, Nash & Young

Difficulty: ExpertExpert

by Nick+D

tuner correct add songbook print version text version save to e-mail
chordsukuleleukulelecavacokeyboardtabbassdrumsharmonicsflute Guitar Pro
close

there isn't a video lesson for this song

chords

Suite Judy Blue Eyes

  		Song is played on a 12-string guitar 
 
Chords the way they are done in the song: 
 D    Dsus   A   G   C   C(2)   Bm   Am   Em 
 2    3      5   3   3   8      2    0    0 
 3    3      5   3   1   8      3    1    0 
 2    2      2   0   0   5      4    2    0 
 0    0      2   0   2   5      4    2    2 
 0    0      0   2   3   x      2    0    2 
 2    x      0   3   x   x      2    0    0 

intro: 
|-5-5-5-5-5-5-5-5-5-3-2-----------2--0-0-0-0---2--0-0-0-0-| 
|-----------------------3---------3--3-0-3-0---3--3-0-3-0-| 
|-7-7-7-7-7-7-7-7-7-5-4-----------2--2-2-2-2---2--2-2-2-2-| 
|--------------------------0-0----0--2-2-2-2---0--2-2-2-2-| 
|-----------------------5------------0-0-0-0------0-0-0-0-| 
|---------------------------------------------------------| 

|-5-5-5-5-5-5-5-5-5-3-2-----------2--0-0-0-0---2-| 
|-----------------------3---------3--3-0-3-0---3-| 
|-7-7-7-7-7-7-7-7-7-5-4-----------2--2-2-2-2---2-| 
|--------------------------0-0----0--2-2-2-2---0-| 
|-----------------------5------------0-0-0-0-----| 
|------------------------------------------------| 

D                   C           G      D      A 
It's getting to the point where I'm no fun anymore 
     G 
I am sorry 
D            C        G       D            A 
Sometimes it hurts so badly I must cry out loud 
      G 
I am lonely 

D                   A             G 
I am yours, you are mine, you are what you are 
            D        G 
You make it ha-a-a-a-ard 

D                   C         G         D               A 
Remember what we've said, and done, and felt about each other 
               G 
Oh, babe, have mercy 
D             C      G          D               A 
Don't let the past remind us of what we are not now 
         G 
I am not dreaming 

D                   A             G 
I am yours, you are mine, you are what you are 
            D        G 
You make it ha-a-a-a-ard 

|-5-5-5-5-5-5-3--2------2--2--0-0-0-0---2--0-0-0-0-| 
|--------------------3-----3--3-0-3-0---3--3-0-3-0-| 
|-7-7-7-7-7-7-5--4------4--2--2-2-2-2---2--2-2-2-2-| 
|--------------------------0--2-2-2-2---0--2-2-2-2-| 
|--------------------5--------0-0-0-0------0-0-0-0-| 
|--------------------------------------------------| 

|-5-5-5/7-7-7\5-5-5-3-2-----------2--0-0-0-0---2-| 
|-----------------------3---------3--3-0-3-0---3-| 
|-7-7-7/9-9-9\7-7-7-5-4-----------2--2-2-2-2---2-| 
|--------------------------0-0----0--2-2-2-2---0-| 
|-----------------------5------------0-0-0-0-----| 
|------------------------------------------------| 

D           C     G           D            A 
Tearing yourself away from me now, you are free 
         G 
And I am crying 
D             C            G           D             A 
This does not mean I don't love you, I do, that's forever 
             G 
Yes, and for always 

D                   A             G 
I am yours, you are mine, you are what you are 
            D        G 
You make it ha-a-a-a-ard 

(Strum more aggresive here) 
D           C       G               D             A 
Something inside is telling me that I've got your secret 
              G 
Are you still listening? 
D           C         G            D           A 
Fear is the lock, and laughter the key to your heart 
      G 
And I love you 

     D              A             G 
I am yours, you are mine, you are what you are 
                D        G 
And you make it ha-a-a-a-ard 
                D        G 
And you make it ha-a-a-a-ard 
                D        G 
And you make it ha-a-a-a-ard 
                D         
And you make it ha-a-a-a-ard 


D                 D Dsus D Dsus D 
Friday evening 
D             G 
Sunday in the afternoon 
                     D 
What have you got to lose? 
D                 D Dsus D Dsus D 
Tuesday morning 
D                   G 
Please be gone, I'm tired of you 
                     D 
What have you got to lose? 

      C               
Can I tell it like it is? 
(Help me I'm suffering) 
G 
Listen to me baby 
C 
It's my heart that's suffering 
(Help me, I'm crying to you) 
     G                               D 
It's dyin' and that's what I have to lose 

D                    D Dsus D Dsus D   
I've got an answer 
D            G 
I'm going to fly away 
                   D 
What have I got to lose? 
D                      D Dsus D Dsus D 
Will you come see me 
D             G 
Thursdays and Saturdays 
                     D 
What have you got to lose? 

1st Solo: 
|-5h7-5---5h7-5---5h7-5---3h5-2h3----5h7-5---5h7-5---5h7-5---3h5-2h3---| 
|---------------------------------3----------------------------------3-| 
|----------------------------------------------------------------------| 
|----------------------------------------------------------------------| 
|----------------------------------------------------------------------| 
|----------------------------------------------------------------------| 

|------------------------2h5--2h5-| 
|-2-3-2~--2h3-0----0h3-3----------| 
|---------------2-----------------| 
|---------------------------------| 
|---------------------------------| 
|---------------------------------| 

|-------------------------------0--0-2--2-3-3-2-0---| 
|--------0-1---1p0-------0-3--3-------------------3-| 
|------------------2-0-2----------------------------| 
|-4h5-5---------------------------------------------| 
|---------------------------------------------------| 
|---------------------------------------------------| 

C                  D 
Chestnut brown canary 
C             D 
Ruby throated sparrow 
Bm     Am    Bm       Am 
Sing a song, don't be long 
Bm        Am     D 
Thrill me to the marrow 

2nd Solo: 
|-----0h2-2h3-3/5-5/7-7/9-9/10-10/12\10-10\9-9\7-7\5-5\3-3\2-2p0---2h3-| 
|-3h5------------------------------------------------------------3-----| 
|----------------------------------------------------------------------| 
|----------------------------------------------------------------------| 
|----------------------------------------------------------------------| 
|----------------------------------------------------------------------| 

|-2p0---0-----| 
|-----3---3-3-| 
|-------------| 
|-------------| 
|-------------| 
|-------------| 

C             D 
Voices of the angels 
C               D 
Ring around the moonlight 
Bm     Am       Bm     Am 
Asking me, said she so free 
Bm          Am        D 
How can you catch the sparrow? 

|-----0-0h2-2h3-3/5-5-3-5------0-0h2-2h3-3/5-5-3-5-5\7-| 
|-3h5----------------------3h5-------------------------| 
|------------------------------------------------------| 
|------------------------------------------------------| 
|------------------------------------------------------| 
|------------------------------------------------------| 

|-8--7--10-10---8--7--10--10---8--7--5--3--2-----| 
|--------------------------------------------3-3-| 
|-10-9--12-12---10-9--10--10---10-9--7--5--4-----| 
|------------------------------------------------| 
|--------------------------------------------5-5-| 
|------------------------------------------------| 

C              D 
Lacy lilting lyrics 
C             D 
Losing love lamenting 
C               C   
Change my life, make it right 
C(2)       D 
     Be my lady 

|-12-12-12-12-12-12-12-12--10----12-12-12-12-12-12-12-12--10-| 
|------------------------------------------------------------| 
|-14-14-14-14-14-14-14-14--12----14-14-14-14-14-14-14-14--12-| 
|------------------------------------------------------------| 
|------------------------------------------------------------| 
|------------------------------------------------------------| 

|-12--12-12-12--10--12--12-12-12--10--12--10-10--7--5-5-| 
|-------------------------------------------------------| 
|-14--14-14-14--12--14--14-14-14--12--14--12-12--9--7-7-| 
|-------------------------------------------------------| 
|-------------------------------------------------------| 
|-------------------------------------------------------| 

G        Am     Em  C        D 
Do do do di di, dit do do do di di 
G        Am     Em  C  D 
Do do do di di, dit do di di 


G        Am     Em  C        D 
Do do do di di, dit do do do di di 
G        Am     Em  C  D 
Do do do di di, dit do di di 


G        Am     Em  C        D 
Do do do di di, dit do do do di di 
G        Am     Em  C  D 
Do do do di di, dit do di di 


G        Am     Em  C        D 
Do do do di di, dit do do do di di 
G        Am     Em  C  D 
Do do do di di, dit do di di 


G        Am     Em  C        D 
Do do do di di, dit do do do di di 
G        Am     Em  C  D 
Do do do di di, dit do di di 


G        Am     Em  C        D 
Do do do di di, dit do do do di di 
G        Am     Em  C  D 
Do do do di di, dit do di di 


G        Am     Em  C        D 
Do do do di di, dit do do do di di 
G        Am     Em  C  D 
Do do do di di, dit do di di 


G        Am     Em  C        D 
Do do do di di, dit do do do di di 
G        Am     Em  C  D  D 
Do do do di di, dit do di di 



	  

Full key step upFull key step up
Half key step upHalf key step up
Half key step downHalf key step down
Full key step downFull key step down
auto scroll beats size up size down change color hide chords drawings
tab show chords e-chords YouTube Clip e-chords hide all tabs e-chords go to top tab

share with facebook

Search Paypal