Nickel Creek

Out Of The Woods

Nickel Creek

tabs Easy easy

save to print version add songbook text version e-mail correct tuner
chordsukulelecavacokeyboardtabbassdrumsharmonicaflute Guitar Pro
close

there isn't a video lesson for this song

chords

Out Of The Woods

	  		By axehappy - [email protected] 
 
 
The chord tab and lyrics for this one are already on the site, 
so I'm just tabbing the picking here. 
Its the picking I used to play the song rather than exactly what 
is being played...cos I made the mistake of learning it before tabbing it! 
Hope it helps all the same! lol 
 
The solo is spot on though. 
 
 
*********************************************************************************** 
 
 
 
PICKING 
-------- 
 
 
This is the picking used for the D chord (repeat as necessary) 
 
E-----------------------------------------| 
B------3--------3---------3--------3------| 
G----2---2----2---2-----2---2----2---2----| 
D---0-0-0-0--0-0-0-0---0-0-0-0--0-0-0-0---| 
A-----------------------------------------| 
D--0------------------0-------------------| 
 
 
 
This is the picking used for the G chord (repeat as necessary) 
 
 
E-----------------------------------------| 
B--------0--------0---------0--------0----| 
G------7--0-----7--0------7--0-----7--0---| 
D----7--------7---------7--------7--------| 
A---5-5-5----5-5-5-----5-5-5----5-5-5-----| 
D--5------------------5-------------------| 
 
 
This is the picking used for the A chord  
 
 
E-------0-----------0-------| 
B----2p0-0-2-----2p0-0-2----| 
G---2-------2---2-------2---| 
D---------------------------| 
A--0-----------0------------| 
E---------------------------| 
 
 
 
ACOUSTIC SOLO 
-------------- 
 
 
 
E---------------5-----5-----5-----------------5-7/9-10p9-----------12--12/14\12- 
B----------5-5/7--7\5-5---5-5h7-7\5-5----5-7-8----------10-------10--10--------- 
G-----4-6-7----------7---7---------7-7--7-----------------9h11/12--------------- 
D--5-7---------------------------------------------0---------------------------- 
A------------------------------------------------------------------------------- 
D------------------------------------------------------------------------------- 
 
 
E--10------------------------| 
B----10h12-12\10-8-10\8------| 
G----------------------0-----| 
D-----------------------0----| 
A----------------------------| 
D------------------------5---| 
		  

Full key step upFull key step up
Half key step upHalf key step up
Half key step downHalf key step down
Full key step downFull key step down
hide glossary

See also:

tabs Simpsons - The simpsons tabs Kenny Chesney - I Go Back tabs Alan Jackson - Chattahoochee Correct tabs Lonestar - Amazed tabs Alison Krauss - You Say Nothing At All tabs James Taylor - Youve Got A Friend (ver. 2)
e-chords

Other versions:

tabs Nickel Creek - Out Of The Woods
auto scroll beats size up size down change color hide chords drawings
tab show chords e-chords YouTube Clip e-chords hide all tabs e-chords go to top tab

share