Nick Zuber

The Way I Am

Nick Zuber

tabs

by  UBIRBOMFIM

save to print version add songbook text version e-mail correct tuner
chordsukulelecavacokeyboardtabbassdrumsharmonicaflute Guitar Pro
close

there isn't a video lesson for this song

chords

The Way I Am

	  		
Intro 

   G               A               D               Bm      A 
e|-----------------------------------2---2---2----------------------------------------| 
B|---3---3---3---3---2---2---2---2---3---3---3-------3---3---2---2--------------------| 
G|---0---0---0---0---2---2---2---2-------------------4---4---2---2--------------------| 
D|---------------------------------0---0---0---2/4------------------------------------| 
A|-----------------0---0---0---0-------------------2---2---0---0----------------------| 
E|-3---3---3---3----------------------------------------------------------------------| 

   G               D               A               Asus4   A 
e|-------------------2---2---2---2----------------------------------------------------| 
B|---3---3---3---3---3---3---3---3---2---2---2---2---3---3---2---2--------------------| 
G|---0---0---0---0-------------------2---2---2---2---2---2---2---2--------------------| 
D|-----------------0---0---0---0------------------------------------------------------| 
A|---------------------------------0---0---0---0---0---0---0---0----------------------| 
E|-3---3---3---3----------------------------------------------------------------------| 


Verse 

   G               A               D               Bm      A 
e|-----------------------------------2---2---2----------------------------------------| 
B|---3---3---3---3---2---2---2---2---3---3---3-------3---3---2---2--------------------| 
G|---0---0---0---0---2---2---2---2-------------------4---4---2---2--------------------| 
D|---------------------------------0---0---0---2/4------------------------------------| 
A|-----------------0---0---0---0-------------------2---2---0---0----------------------| 
E|-3---3---3---3----------------------------------------------------------------------| 

   G               D               A               Asus4   A 
e|-------------------2---2---2---2----------------------------------------------------| 
B|---3---3---3---3---3---3---3---3---2---2---2---2---3---3---2---2--------------------| 
G|---0---0---0---0-------------------2---2---2---2---2---2---2---2--------------------| 
D|-----------------0---0---0---0------------------------------------------------------| 
A|---------------------------------0---0---0---0---0---0---0---0----------------------| 
E|-3---3---3---3----------------------------------------------------------------------| 


Chorus 

   Bm              A               G               D       Dsus2 
e|---------------------------------------------------2---2---0------------------------| 
B|---3---3---3---3---2---2---2---2---3---3---3---3---3---3---3------------------------| 
G|---4---4---4---4---2---2---2---2---0---0---0---0------------------------------------| 
D|-------------------------------------------------0---0---0---2/4--------------------| 
A|-2---2---2---2---0---0---0---0------------------------------------------------------| 
E|---------------------------------3---3---3---3--------------------------------------| 

   Bm              A               G               D 
e|---------------------------------------------------2---2---2---2---2---2---2---2----| 
B|---3---3---3---3---2---2---2---2---3---3---3---3---3---3---3---3---3---3---3---3----| 
G|---4---4---4---4---2---2---2---2---0---0---0---0------------------------------------| 
D|-------------------------------------------------0---0---0---0---0---0---0---0------| 
A|-2---2---2---2---0---0---0---0------------------------------------------------------| 
E|---------------------------------3---3---3---3--------------------------------------| 


Bridge 

   Bm                              A               Asus4   A 
e|------------------------------------------------------------------------------------| 
B|---3---3---3---3---3---3---3---3---2---2---2---2---3---3---2---2--------------------| 
G|---4---4---4---4---4---4---4---4---2---2---2---2---2---2---2---2--------------------| 
D|------------------------------------------------------------------------------------| 
A|-2---2---2---2---2---2---2---2---0---0---0---0---0---0---0---0----------------------| 
E|------------------------------------------------------------------------------------| 

   G               G/F#            Em 
e|------------------------------------------------------------------------------------| 
B|---3---3---3---3---3---3---3---3---0---0---0---0---0---0---0---0--------------------| 
G|---0---0---0---0---0---0---0---0---0---0---0---0---0---0---0---0--------------------| 
D|------------------------------------------------------------------------------------| 
A|------------------------------------------------------------------------------------| 
E|-3---3---3---3---2---2---2---2---0---0---0---0---0---0---0---0----------------------| 


Outro 

   G               A               D               Bm      A 
e|-----------------------------------2---2---2----------------------------------------| 
B|---3---3---3---3---2---2---2---2---3---3---3-------3---3---2---2--------------------| 
G|---0---0---0---0---2---2---2---2-------------------4---4---2---2--------------------| 
D|---------------------------------0---0---0---2/4------------------------------------| 
A|-----------------0---0---0---0-------------------2---2---0---0----------------------| 
E|-3---3---3---3----------------------------------------------------------------------| 

   G               D               A               Asus4 
e|-------------------2---2---2---2---------------------------------------------------2| 
B|---3---3---3---3---3---3---3---3---2---2---2---2---3---3---5---5---7---7---8---8---3| 
G|---0---0---0---0-------------------2---2---2---2---2---2---4---4---6---6---7---7---2| 
D|-----------------0---0---0---0-----------------------------------------------------0| 
A|---------------------------------0---0---0---0---0---0---0---0---0---0---0---0------| 
E|-3---3---3---3----------------------------------------------------------------------| 

 
		  

Full key step upFull key step up
Half key step upHalf key step up
Half key step downHalf key step down
Full key step downFull key step down
auto scroll beats size up size down change color hide chords drawings
tab show chords e-chords YouTube Clip e-chords hide all tabs e-chords go to top tab

share