Músicas Infantis

home > Músicas Infantis

Parabéns Pra Você (solo) Tab

Músicas Infantis

Difficulty: BeginnerBeginner

by tulionline

tuner correct add songbook print version text version save to e-mail
chordsukulelecavacokeyboardtabbassdrumsharmonicsflute Guitar Pro
chords

Parabéns Pra Você (solo)

  		Essa eh uma musica bem popular e muito facil:   
   
   
E|---0-0-2-0-5-4-0-0-2-0-7-5-5-|   
B|-----------------------------|   
G|-----------------------------|   
D|-----------------------------|   
A|-----------------------------|   
E|-----------------------------|   
   
   
E|---9-9-12-9-5-4-2--10-10-9-5-7-5-5-|   
B|-----------------------------------|   
G|-----------------------------------|   
D|-----------------------------------|   
A|-----------------------------------|   
E|-----------------------------------|   
   
E|-10-10-9-5-7-5---------------------|   
B|-----------------------------------|   
G|-----------------------------------|   
D|-----------------------------------|   
A|-----------------------------------|   
E|-----------------------------------|   
    
Esse eh o solo da musica Parabéns pra você, por isso   
ele deve ser tocado sem muita velocidade.   
   

OUTRA VERSÃO 

E|------------------------------|   
B|-----------1-0----------3-1-1-|   
G|---0-0-2-0-------0-0-2-0------|   
D|------------------------------|   
A|------------------------------|   
E|------------------------------|   


E|-0-0-3-0--------1-1-0----------|   
B|---------1-0---------1-3-1-1---|   
G|--------------2----------------|   
D|-------------------------------|   
A|-------------------------------|   
E|-------------------------------|  

	  

Search Paypal
auto scroll beats size up size down change color hide chords drawings
tab show chords e-chords YouTube Clip e-chords hide all tabs e-chords go to top tab