Músicas Infantis

home > Músicas Infantis

Borboletinha Tab

Músicas Infantis

Difficulty: BeginnerBeginner

by Guirocknaveia

tuner correct add songbook print version text version save to e-mail
chordsukulelecavacokeyboardtabbassdrumsharmonicsflute Guitar Pro
chords

Borboletinha

  		O nome da música eu não sei se é isso mesmo...
Mas a música só fala da borboletinha...

Valeu galera quaquer dúvida fale com o Guilherme Breda Rezende ([email protected]).

A música é tocada BEM LENTAMENTE...
Por isso quem não conseguir acompanhar essa música...
É melhor escolher outro instrumento musical...  ;-)


PARTE 1 :

     borboletinha   tá na cozinha   fazendo chocolate   para a madrinha    
G||-------2--3-3------------2-2---------------2-2---------------2--3-3--------|
D||---3-5------------3-5-3-----------3-5-3-5---------------3-5----------------|
A||---------------------------------------------------------------------------|
E||---------------------------------------------------------------------------|


PARTE 2 :

    Cu Ti Cu Tí   perna de pau    olho de vidro   nariz de picapau   
G||----------3-------------2--------------2-2----------------2-3-------3--3-3-|
D||---3-5-3---------3-5-3----------3-5-3------------3-5-3-5-------------------|
A||---------------------------------------------------------------------------|
E||---------------------------------------------------------------------------|


Depois repete X vezes sempre nessa ordem... Parte 1 e Parte 2

OBS: o valor X depende do fôlego da criança... boa sorte !
	  

Search Paypal
auto scroll beats size up size down change color hide chords drawings
tab show chords e-chords YouTube Clip e-chords hide all tabs e-chords go to top tab